  0
SECTION
  2
HEADER
  9
$ACADVER
  1
AC1009
  9
$DWGCODEPAGE
  3
ansi_932
  9
$INSBASE
 10
0.0
 20
0.0
 30
0.0
  9
$EXTMIN
 10
-180.0
 20
-272.9954744531249
 30
0.0
  9
$EXTMAX
 10
180.0
 20
263.531815
 30
0.0
  9
$LIMMIN
 10
0.0
 20
0.0
  9
$LIMMAX
 10
0.0
 20
0.0
  9
$ORTHOMODE
 70
     0
  9
$REGENMODE
 70
     1
  9
$FILLMODE
 70
     1
  9
$QTEXTMODE
 70
     0
  9
$MIRRTEXT
 70
     1
  9
$DRAGMODE
 70
     2
  9
$LTSCALE
 40
10.16
  9
$OSMODE
 70
    37
  9
$ATTMODE
 70
     1
  9
$TEXTSIZE
 40
0.0
  9
$TRACEWID
 40
1.0
  9
$TEXTSTYLE
  7
STANDARD
  9
$CLAYER
  8
DATA
  9
$CELTYPE
  6
BYLAYER
  9
$CECOLOR
 62
   256
  9
$DIMSCALE
 40
1.0
  9
$DIMASZ
 40
0.18
  9
$DIMEXO
 40
0.0625
  9
$DIMDLI
 40
0.38
  9
$DIMRND
 40
0.0
  9
$DIMDLE
 40
0.0
  9
$DIMEXE
 40
0.18
  9
$DIMTP
 40
0.0
  9
$DIMTM
 40
0.0
  9
$DIMTXT
 40
0.18
  9
$DIMCEN
 40
0.09
  9
$DIMTSZ
 40
0.0
  9
$DIMTOL
 70
     0
  9
$DIMLIM
 70
     0
  9
$DIMTIH
 70
     1
  9
$DIMTOH
 70
     1
  9
$DIMSE1
 70
     0
  9
$DIMSE2
 70
     0
  9
$DIMTAD
 70
     0
  9
$DIMZIN
 70
     0
  9
$DIMBLK
  1

  9
$DIMASO
 70
     1
  9
$DIMSHO
 70
     1
  9
$DIMPOST
  1

  9
$DIMAPOST
  1

  9
$DIMALT
 70
     0
  9
$DIMALTD
 70
     2
  9
$DIMALTF
 40
25.4
  9
$DIMLFAC
 40
1.0
  9
$DIMTOFL
 70
     0
  9
$DIMTVP
 40
0.0
  9
$DIMTIX
 70
     0
  9
$DIMSOXD
 70
     0
  9
$DIMSAH
 70
     0
  9
$DIMBLK1
  1

  9
$DIMBLK2
  1

  9
$DIMSTYLE
  2
STANDARD
  9
$DIMCLRD
 70
     0
  9
$DIMCLRE
 70
     0
  9
$DIMCLRT
 70
     0
  9
$DIMTFAC
 40
1.0
  9
$DIMGAP
 40
0.09
  9
$LUNITS
 70
     2
  9
$LUPREC
 70
     2
  9
$SKETCHINC
 40
0.1
  9
$FILLETRAD
 40
0.0
  9
$AUNITS
 70
     0
  9
$AUPREC
 70
     0
  9
$MENU
  1
acad
  9
$ELEVATION
 40
0.0
  9
$PELEVATION
 40
0.0
  9
$THICKNESS
 40
0.0
  9
$LIMCHECK
 70
     0
  9
$CHAMFERA
 40
0.0
  9
$CHAMFERB
 40
0.0
  9
$SKPOLY
 70
     0
  9
$TDCREATE
 40
2459342.417809398
  9
$TDUPDATE
 40
2459342.418446667
  9
$TDINDWG
 40
2459342.04344721
  9
$TDUSRTIMER
 40
0.0006378125
  9
$USRTIMER
 70
     1
  9
$ANGBASE
 50
0.0
  9
$ANGDIR
 70
     0
  9
$PDMODE
 70
     1
  9
$PDSIZE
 40
-2.0
  9
$PLINEWID
 40
0.0
  9
$COORDS
 70
     1
  9
$SPLFRAME
 70
     0
  9
$SPLINETYPE
 70
     6
  9
$SPLINESEGS
 70
     8
  9
$ATTDIA
 70
     1
  9
$ATTREQ
 70
     1
  9
$HANDLING
 70
     1
  9
$HANDSEED
  5
371
  9
$SURFTAB1
 70
     6
  9
$SURFTAB2
 70
     6
  9
$SURFTYPE
 70
     6
  9
$SURFU
 70
     6
  9
$SURFV
 70
     6
  9
$UCSNAME
  2

  9
$UCSORG
 10
0.0
 20
0.0
 30
0.0
  9
$UCSXDIR
 10
1.0
 20
0.0
 30
0.0
  9
$UCSYDIR
 10
0.0
 20
1.0
 30
0.0
  9
$PUCSNAME
  2

  9
$PUCSORG
 10
0.0
 20
0.0
 30
0.0
  9
$PUCSXDIR
 10
1.0
 20
0.0
 30
0.0
  9
$PUCSYDIR
 10
0.0
 20
1.0
 30
0.0
  9
$USERI1
 70
     0
  9
$USERI2
 70
     0
  9
$USERI3
 70
     0
  9
$USERI4
 70
     0
  9
$USERI5
 70
     0
  9
$USERR1
 40
0.0
  9
$USERR2
 40
0.0
  9
$USERR3
 40
0.0
  9
$USERR4
 40
0.0
  9
$USERR5
 40
0.0
  9
$WORLDVIEW
 70
     1
  9
$SHADEDGE
 70
     3
  9
$SHADEDIF
 70
    70
  9
$TILEMODE
 70
     1
  9
$MAXACTVP
 70
    64
  9
$PLIMCHECK
 70
     0
  9
$PEXTMIN
 10
1.000000000000000E+20
 20
1.000000000000000E+20
 30
1.000000000000000E+20
  9
$PEXTMAX
 10
-1.000000000000000E+20
 20
-1.000000000000000E+20
 30
-1.000000000000000E+20
  9
$PLIMMIN
 10
0.0
 20
0.0
  9
$PLIMMAX
 10
12.0
 20
9.0
  9
$UNITMODE
 70
     0
  9
$VISRETAIN
 70
     0
  9
$PLINEGEN
 70
     1
  9
$PSLTSCALE
 70
     0
  0
ENDSEC
  0
SECTION
  2
TABLES
  0
TABLE
  2
VPORT
 70
     1
  0
VPORT
  2
*ACTIVE
 70
     0
 10
0.0
 20
0.0
 11
1.0
 21
1.0
 12
0.0
 22
-3.531814999999938
 13
0.0
 23
0.0
 14
1.0
 24
1.0
 15
0.0
 25
0.0
 16
0.0
 26
0.0
 36
1.0
 17
0.0
 27
0.0
 37
0.0
 40
534.1272600000001
 41
2.794721407624633
 42
50.0
 43
0.0
 44
0.0
 50
0.0
 51
0.0
 71
     0
 72
  2000
 73
     1
 74
     1
 75
     0
 76
     0
 77
     0
 78
     0
  0
ENDTAB
  0
TABLE
  2
LTYPE
 70
    12
  0
LTYPE
  2
CONTINUOUS
 70
     0
  3
Solid line
 72
    65
 73
     0
 40
0.0
  0
LTYPE
  2
STYLE_01
 70
     0
  3

 72
    65
 73
     2
 40
0.4166412353515625
 49
0.208282470703125
 49
-0.2083587646484375
  0
ENDTAB
  0
TABLE
  2
LAYER
 70
     6
  0
LAYER
  2
0
 70
     0
 62
     7
  6
CONTINUOUS
  0
LAYER
  2
HIBINO-BASE
 70
     0
 62
     7
  6
CONTINUOUS
  0
LAYER
  2
PATTERN_FILL
 70
     0
 62
     7
  6
CONTINUOUS
  0
LAYER
  2
SPEC
 70
     0
 62
     7
  6
CONTINUOUS
  0
LAYER
  2
DIMNSIONS
 70
     0
 62
     7
  6
CONTINUOUS
  0
LAYER
  2
DATA
 70
     0
 62
     7
  6
CONTINUOUS
  0
ENDTAB
  0
TABLE
  2
STYLE
 70
     2
  0
STYLE
  2
STANDARD
 70
     0
 40
0.0
 41
1.0
 50
0.0
 71
     0
 42
0.0
  3
txt
  4
BIGFONT.SHX
  0
ENDTAB
  0
TABLE
  2
VIEW
 70
     0
  0
ENDTAB
  0
TABLE
  2
UCS
 70
     0
  0
ENDTAB
  0
TABLE
  2
APPID
 70
     3
  0
APPID
  2
ACAD
 70
     0
  0
APPID
  2
ACAD_MLEADERVER
 70
     0
  0
APPID
  2
ACADANNOPO
 70
     0
  0
ENDTAB
  0
TABLE
  2
DIMSTYLE
 70
     1
  0
DIMSTYLE
  2
STANDARD
 70
     0
  3

  4

  5

  6

  7

 40
1.0
 41
0.18
 42
0.0625
 43
0.38
 44
0.18
 45
0.0
 46
0.0
 47
0.0
 48
0.0
140
0.18
141
0.09
142
0.0
143
25.4
144
1.0
145
0.0
146
1.0
147
0.09
 71
     0
 72
     0
 73
     1
 74
     1
 75
     0
 76
     0
 77
     0
 78
     0
170
     0
171
     2
172
     0
173
     0
174
     0
175
     0
176
     0
177
     0
178
     0
  0
ENDTAB
  0
ENDSEC
  0
SECTION
  2
BLOCKS
  0
BLOCK
  8
DATA
  2
$MODEL_SPACE
 70
     0
 10
0.0
 20
0.0
 30
0.0
  3
$MODEL_SPACE
  1

  0
ENDBLK
  5
332
  8
DATA
  0
BLOCK
 67
     1
  8
DATA
  2
$PAPER_SPACE
 70
     0
 10
0.0
 20
0.0
 30
0.0
  3
$PAPER_SPACE
  1

  0
ENDBLK
  5
330
 67
     1
  8
DATA
  0
ENDSEC
  0
SECTION
  2
ENTITIES
  0
LINE
  5
2E
  8
HIBINO-BASE
  6
CONTINUOUS
 62
     7
 10
-180.0
 20
263.531815
 30
0.0
 11
180.0
 21
263.531815
 31
0.0
  0
LINE
  5
2F
  8
HIBINO-BASE
  6
CONTINUOUS
 62
     7
 10
180.0
 20
-256.4681849999999
 30
0.0
 11
-180.0
 21
-256.4681849999999
 31
0.0
  0
LINE
  5
30
  8
HIBINO-BASE
  6
CONTINUOUS
 62
     7
 10
-180.0
 20
-256.4681849999999
 30
0.0
 11
-180.0
 21
263.531815
 31
0.0
  0
LINE
  5
31
  8
HIBINO-BASE
  6
CONTINUOUS
 62
     7
 10
180.0
 20
263.531815
 30
0.0
 11
180.0
 21
-256.4681849999999
 31
0.0
  0
LINE
  5
32
  8
HIBINO-BASE
  6
CONTINUOUS
 62
     7
 10
0.0000000000000284
 20
-211.4681849999999
 30
0.0
 11
180.0
 21
-211.4681849999999
 31
0.0
  0
LINE
  5
33
  8
HIBINO-BASE
  6
CONTINUOUS
 62
     7
 10
0.0000000000000284
 20
-256.4681849999999
 30
0.0
 11
0.0000000000000284
 21
-211.4681849999999
 31
0.0
  0
TEXT
  5
34
  8
HIBINO-BASE
 62
     7
 10
1.80000000000004
 20
-216.4855716666666
 30
0.0
 40
3.257682291666666
  1
NOTE
 41
0.7
 11
1.80000000000004
 21
-213.2278893749999
 31
0.0
 73
     3
  0
LINE
  5
35
  8
HIBINO-BASE
  6
CONTINUOUS
 62
     7
 10
70.00000000000003
 20
-256.4681849999999
 30
0.0
 11
70.00000000000003
 21
-211.4681849999999
 31
0.0
  0
TEXT
  5
36
  8
HIBINO-BASE
 62
     7
 10
71.79999999999998
 20
-216.4855716666666
 30
0.0
 40
3.257682291666666
  1
TITLE
 41
0.7
 11
71.79999999999998
 21
-213.2278893749999
 31
0.0
 73
     3
  0
LINE
  5
37
  8
HIBINO-BASE
  6
CONTINUOUS
 62
     7
 10
0.0000000000000284
 20
-236.4681849999999
 30
0.0
 11
180.0
 21
-236.4681849999999
 31
0.0
  0
TEXT
  5
38
  8
HIBINO-BASE
 62
     7
 10
96.79999999999998
 20
-241.3729316666667
 30
0.0
 40
3.257682291666666
  1
DRAWN
 41
0.7
 11
96.79999999999998
 21
-238.115249375
 31
0.0
 73
     3
  0
TEXT
  5
39
  8
HIBINO-BASE
 62
     7
 10
46.79999999999998
 20
-241.3729316666667
 30
0.0
 40
3.257682291666666
  1
DATE
 41
0.7
 11
46.79999999999998
 21
-238.115249375
 31
0.0
 73
     3
  0
TEXT
  5
3A
  8
HIBINO-BASE
 62
     7
 10
26.79999999999998
 20
-241.3729316666667
 30
0.0
 40
3.257682291666666
  1
SCALE
 41
0.7
 11
26.79999999999998
 21
-238.115249375
 31
0.0
 73
     3
  0
TEXT
  5
3B
  8
HIBINO-BASE
 62
     7
 10
71.79999999999998
 20
-241.3729316666667
 30
0.0
 40
3.257682291666666
  1
DESIGN
 41
0.7
 11
71.79999999999998
 21
-238.115249375
 31
0.0
 73
     3
  0
TEXT
  5
3C
  8
HIBINO-BASE
 62
     7
 10
146.8
 20
-241.3729316666667
 30
0.0
 40
3.257682291666666
  1
DRAWING NO.
 41
0.7
 11
146.8
 21
-238.115249375
 31
0.0
 73
     3
  0
TEXT
  5
3D
  8
HIBINO-BASE
 62
     7
 10
121.8
 20
-241.3729316666667
 30
0.0
 40
3.257682291666666
  1
CHECK
 41
0.7
 11
121.8
 21
-238.115249375
 31
0.0
 73
     3
  0
LINE
  5
3E
  8
HIBINO-BASE
  6
CONTINUOUS
 62
     7
 10
28.75000000000003
 20
-253.9681849999999
 30
0.0
 11
36.25000000000003
 21
-246.4681849999999
 31
0.0
  0
TEXT
  5
3F
  8
HIBINO-BASE
 62
     7
 10
27.50000000000003
 20
-248.6860716666666
 30
0.0
 40
3.257682291666666
  1
1
 41
0.7
 11
27.50000000000003
 21
-245.428389375
 31
0.0
 73
     3
  0
LINE
  5
40
  8
HIBINO-BASE
  6
CONTINUOUS
 62
     7
 10
25.00000000000003
 20
-256.4681849999999
 30
0.0
 11
25.00000000000003
 21
-236.4681849999999
 31
0.0
  0
LINE
  5
41
  8
HIBINO-BASE
  6
CONTINUOUS
 62
     7
 10
44.99999999999997
 20
-256.4681849999999
 30
0.0
 11
44.99999999999997
 21
-236.4681849999999
 31
0.0
  0
LINE
  5
42
  8
HIBINO-BASE
  6
CONTINUOUS
 62
     7
 10
94.99999999999997
 20
-236.4681849999999
 30
0.0
 11
94.99999999999997
 21
-256.4681849999999
 31
0.0
  0
LINE
  5
43
  8
HIBINO-BASE
  6
CONTINUOUS
 62
     7
 10
145.0
 20
-236.4681849999999
 30
0.0
 11
145.0
 21
-256.4681849999999
 31
0.0
  0
LINE
  5
44
  8
HIBINO-BASE
  6
CONTINUOUS
 62
     7
 10
120.0
 20
-256.4681849999999
 30
0.0
 11
120.0
 21
-236.4681849999999
 31
0.0
  0
TEXT
  5
45
  8
HIBINO-BASE
 62
     7
 10
46.71308000000002
 20
-250.7408916666666
 30
0.0
 40
3.257682291666666
  1
'21.05.
 41
0.7
 11
46.71308000000002
 21
-247.4832093749999
 31
0.0
 73
     3
  0
TEXT
  5
46
  8
HIBINO-BASE
 62
     7
 10
35.00000000000003
 20
-252.4360716666666
 30
0.0
 40
3.257682291666666
  1
2
 41
0.7
 11
35.00000000000003
 21
-249.178389375
 31
0.0
 73
     3
  0
TEXT
  5
47
  8
HIBINO-BASE
 62
     7
 10
98.01162002206925
 20
-250.7408916666666
 30
0.0
 40
3.257682291666666
  1
N.Sasaki
 41
0.7
 11
98.01162002206925
 21
-247.4832093749999
 31
0.0
 73
     3
  0
TEXT
  5
48
  8
HIBINO-BASE
 62
     7
 10
7.766666666666737
 20
-252.5161849999999
 30
0.0
 40
6.515364583333333
  1
A4
 41
0.7
 11
7.766666666666737
 21
-246.0008204166666
 31
0.0
 73
     3
  0
TEXT
  5
49
  8
HIBINO-BASE
 62
     7
 10
1.916666666666657
 20
-241.707095
 30
0.0
 40
3.257682291666666
  1
PAPER SIZE
 41
0.7
 11
1.916666666666657
 21
-238.4494127083333
 31
0.0
 73
     3
  0
TEXT
  5
4A
  8
HIBINO-BASE
 62
     7
 10
-165.6319999999999
 20
-269.2855405999999
 30
0.0
 40
7.200088359374999
  1
Hibino Corporation
 41
0.7
 11
-165.6319999999999
 21
-262.0854522406249
 31
0.0
 73
     3
  0
TEXT
  5
4B
  8
HIBINO-BASE
 62
     7
 10
100.13678
 20
-269.2855405999999
 30
0.0
 40
7.200088359374999
  1
ヒビノ株式会社
 41
0.7
 11
100.13678
 21
-262.0854522406249
 31
0.0
 73
     3
  0
LINE
  5
4C
  8
PATTERN_FILL
  6
CONTINUOUS
 62
     7
 10
43.05635758751509
 20
33.0793873097374
 30
0.0
 11
41.03478260869565
 21
31.0578123309179
 31
0.0
  0
LINE
  5
4D
  8
PATTERN_FILL
  6
CONTINUOUS
 62
     7
 10
46.06918218499595
 20
33.29221190721832
 30
0.0
 11
40.91304347826076
 21
28.1360732004831
 31
0.0
  0
LINE
  5
4E
  8
PATTERN_FILL
  6
CONTINUOUS
 62
     7
 10
49.04412138254202
 20
33.46715110476427
 30
0.0
 11
40.7913043478261
 21
25.21433407004835
 31
0.0
  0
LINE
  5
4F
  8
PATTERN_FILL
  6
CONTINUOUS
 62
     7
 10
51.98264344631752
 20
33.60567316853988
 30
0.0
 11
40.66956521739121
 21
22.29259493961354
 31
0.0
  0
LINE
  5
50
  8
PATTERN_FILL
  6
CONTINUOUS
 62
     7
 10
54.88611030812308
 20
33.70914003034537
 30
0.0
 11
40.54782608695655
 21
19.37085580917878
 31
0.0
  0
LINE
  5
51
  8
PATTERN_FILL
  6
CONTINUOUS
 62
     7
 10
57.7557880181264
 20
33.77881774034873
 30
0.0
 11
40.42608695652166
 21
16.44911667874401
 31
0.0
  0
LINE
  5
52
  8
PATTERN_FILL
  6
CONTINUOUS
 62
     7
 10
60.59285590526247
 20
33.81588562748475
 30
0.0
 11
40.304347826087
 21
13.52737754830919
 31
0.0
  0
LINE
  5
53
  8
PATTERN_FILL
  6
CONTINUOUS
 62
     7
 10
63.39841463566199
 20
33.82144435788426
 30
0.0
 11
40.18260869565211
 21
10.60563841787443
 31
0.0
  0
LINE
  5
54
  8
PATTERN_FILL
  6
CONTINUOUS
 62
     7
 10
66.17349332715958
 20
33.79652304938182
 30
0.0
 11
40.06086956521722
 21
7.683899287439626
 31
0.0
  0
LINE
  5
55
  8
PATTERN_FILL
  6
CONTINUOUS
 62
     7
 10
68.9190558517937
 20
33.74208557401599
 30
0.0
 11
39.93913043478256
 21
4.762160157004882
 31
0.0
  0
LINE
  5
56
  8
PATTERN_FILL
  6
CONTINUOUS
 62
     7
 10
71.63600643693894
 20
33.65903615916119
 30
0.0
 11
39.81739130434767
 21
1.84042102657008
 31
0.0
  0
LINE
  5
57
  8
PATTERN_FILL
  6
CONTINUOUS
 62
     7
 10
74.32519465830592
 20
33.54822438052815
 30
0.0
 11
39.695652173913
 21
-1.081318103864707
 31
0.0
  0
LINE
  5
58
  8
PATTERN_FILL
  6
CONTINUOUS
 62
     7
 10
76.98741990372173
 20
33.41044962594395
 30
0.0
 11
39.57391304347811
 21
-4.003057234299465
 31
0.0
  0
LINE
  5
59
  8
PATTERN_FILL
  6
CONTINUOUS
 62
     7
 10
79.62343537476909
 20
33.24646509699133
 30
0.0
 11
39.45217391304345
 21
-6.924796364734238
 31
0.0
  0
LINE
  5
5A
  8
PATTERN_FILL
  6
CONTINUOUS
 62
     7
 10
82.23395168352386
 20
33.05698140574626
 30
0.0
 11
39.33043478260856
 21
-9.846535495169025
 31
0.0
  0
LINE
  5
5B
  8
PATTERN_FILL
  6
CONTINUOUS
 62
     7
 10
83.91777316899197
 20
31.94080289121425
 30
0.0
 11
39.2086956521739
 21
-12.76827462560378
 31
0.0
  0
LINE
  5
5C
  8
PATTERN_FILL
  6
CONTINUOUS
 62
     7
 10
84.03999999999996
 20
29.26302972222229
 30
0.0
 11
39.08695652173901
 21
-15.6900137560386
 31
0.0
  0
LINE
  5
5D
  8
PATTERN_FILL
  6
CONTINUOUS
 62
     7
 10
84.15200000000004
 20
26.57502972222227
 30
0.0
 11
38.96521739130435
 21
-18.61175288647337
 31
0.0
  0
LINE
  5
5E
  8
PATTERN_FILL
  6
CONTINUOUS
 62
     7
 10
84.2639999999999
 20
23.88702972222228
 30
0.0
 11
38.84347826086946
 21
-21.53349201690814
 31
0.0
  0
LINE
  5
5F
  8
PATTERN_FILL
  6
CONTINUOUS
 62
     7
 10
84.37599999999998
 20
21.19902972222226
 30
0.0
 11
38.7217391304348
 21
-24.45523114734293
 31
0.0
  0
LINE
  5
60
  8
PATTERN_FILL
  6
CONTINUOUS
 62
     7
 10
84.48799999999983
 20
18.51102972222228
 30
0.0
 11
40.85553326272202
 21
-25.12143701505569
 31
0.0
  0
LINE
  5
61
  8
PATTERN_FILL
  6
CONTINUOUS
 62
     7
 10
84.59999999999991
 20
15.82302972222234
 30
0.0
 11
43.4844186480293
 21
-25.29255162974839
 31
0.0
  0
LINE
  5
62
  8
PATTERN_FILL
  6
CONTINUOUS
 62
     7
 10
84.71199999999999
 20
13.13502972222228
 30
0.0
 11
46.1344018843281
 21
-25.44256839344967
 31
0.0
  0
LINE
  5
63
  8
PATTERN_FILL
  6
CONTINUOUS
 62
     7
 10
84.82399999999984
 20
10.44702972222228
 30
0.0
 11
48.80596775800382
 21
-25.57100251977396
 31
0.0
  0
LINE
  5
64
  8
PATTERN_FILL
  6
CONTINUOUS
 62
     7
 10
84.93599999999992
 20
7.759029722222305
 30
0.0
 11
51.49962478865723
 21
-25.67734548912036
 31
0.0
  0
LINE
  5
65
  8
PATTERN_FILL
  6
CONTINUOUS
 62
     7
 10
85.048
 20
5.071029722222331
 30
0.0
 11
54.21590686059858
 21
-25.76106341717896
 31
0.0
  0
LINE
  5
66
  8
PATTERN_FILL
  6
CONTINUOUS
 62
     7
 10
85.15999999999985
 20
2.3830297222223
 30
0.0
 11
56.9553750030932
 21
-25.82159527468453
 31
0.0
  0
LINE
  5
67
  8
PATTERN_FILL
  6
CONTINUOUS
 62
     7
 10
85.27199999999993
 20
-0.3049702777777163
 30
0.0
 11
59.71861933630953
 21
-25.85835094146814
 31
0.0
  0
LINE
  5
68
  8
PATTERN_FILL
  6
CONTINUOUS
 62
     7
 10
85.38400000000001
 20
-2.99297027777769
 30
0.0
 11
62.5
 21
-25.87697027777769
 31
0.0
  0
LINE
  5
69
  8
PATTERN_FILL
  6
CONTINUOUS
 62
     7
 10
85.49599999999987
 20
-5.680970277777678
 30
0.0
 11
65.31895550268587
 21
-25.85801477509179
 31
0.0
  0
LINE
  5
6A
  8
PATTERN_FILL
  6
CONTINUOUS
 62
     7
 10
85.60799999999995
 20
-8.36897027777768
 30
0.0
 11
68.15739326917765
 21
-25.81957700860004
 31
0.0
  0
LINE
  5
6B
  8
PATTERN_FILL
  6
CONTINUOUS
 62
     7
 10
85.72000000000003
 20
-11.0569702777777
 30
0.0
 11
71.02230449418539
 21
-25.75466578359216
 31
0.0
  0
LINE
  5
6C
  8
PATTERN_FILL
  6
CONTINUOUS
 62
     7
 10
85.83199999999988
 20
-13.7449702777777
 30
0.0
 11
73.91446125634093
 21
-25.66250902143662
 31
0.0
  0
LINE
  5
6D
  8
PATTERN_FILL
  6
CONTINUOUS
 62
     7
 10
85.94399999999996
 20
-16.43297027777765
 30
0.0
 11
76.83468117829648
 21
-25.54228909948118
 31
0.0
  0
LINE
  5
6E
  8
PATTERN_FILL
  6
CONTINUOUS
 62
     7
 10
86.05600000000004
 20
-19.12097027777768
 30
0.0
 11
79.7838312615113
 21
-25.39313901626632
 31
0.0
  0
LINE
  5
6F
  8
PATTERN_FILL
  6
CONTINUOUS
 62
     7
 10
86.16799999999989
 20
-21.80897027777771
 30
0.0
 11
82.76283214955333
 21
-25.21413812822424
 31
0.0
  0
LINE
  5
70
  8
PATTERN_FILL
  6
CONTINUOUS
 62
     7
 10
80.86318746925235
 20
33.15984225296984
 30
0.0
 11
84.00869565217386
 21
30.01433407004833
 31
0.0
  0
LINE
  5
71
  8
PATTERN_FILL
  6
CONTINUOUS
 62
     7
 10
77.86406908581307
 20
33.35896063640925
 30
0.0
 11
84.13043478260875
 21
27.09259493961355
 31
0.0
  0
LINE
  5
72
  8
PATTERN_FILL
  6
CONTINUOUS
 62
     7
 10
74.90229879734284
 20
33.52073092487947
 30
0.0
 11
84.2521739130434
 21
24.17085580917879
 31
0.0
  0
LINE
  5
73
  8
PATTERN_FILL
  6
CONTINUOUS
 62
     7
 10
71.9764476044677
 20
33.64658211775441
 30
0.0
 11
84.3739130434783
 21
21.24911667874399
 31
0.0
  0
LINE
  5
74
  8
PATTERN_FILL
  6
CONTINUOUS
 62
     7
 10
69.08518894717236
 20
33.73784077504975
 30
0.0
 11
84.49565217391296
 21
18.3273775483092
 31
0.0
  0
LINE
  5
75
  8
PATTERN_FILL
  6
CONTINUOUS
 62
     7
 10
66.22728873780284
 20
33.79574098441938
 30
0.0
 11
84.61739130434785
 21
15.40563841787443
 31
0.0
  0
LINE
  5
76
  8
PATTERN_FILL
  6
CONTINUOUS
 62
     7
 10
63.401596614254
 20
33.82143310796818
 30
0.0
 11
84.73913043478251
 21
12.48389928743964
 31
0.0
  0
LINE
  5
77
  8
PATTERN_FILL
  6
CONTINUOUS
 62
     7
 10
60.60703823532549
 20
33.81599148689671
 30
0.0
 11
84.8608695652174
 21
9.562160157004868
 31
0.0
  0
LINE
  5
78
  8
PATTERN_FILL
  6
CONTINUOUS
 62
     7
 10
57.84260847016139
 20
33.78042125206088
 30
0.0
 11
84.98260869565206
 21
6.64042102657007
 31
0.0
  0
LINE
  5
79
  8
PATTERN_FILL
  6
CONTINUOUS
 62
     7
 10
55.10736535796241
 20
33.71566436425991
 30
0.0
 11
85.10434782608695
 21
3.718681896135319
 31
0.0
  0
LINE
  5
7A
  8
PATTERN_FILL
  6
CONTINUOUS
 62
     7
 10
52.40042473394374
 20
33.62260498827851
 30
0.0
 11
85.22608695652161
 21
0.7969427657005106
 31
0.0
  0
LINE
  5
7B
  8
PATTERN_FILL
  6
CONTINUOUS
 62
     7
 10
49.72095543373939
 20
33.50207428848275
 30
0.0
 11
85.3478260869565
 21
-2.124796364734241
 31
0.0
  0
LINE
  5
7C
  8
PATTERN_FILL
  6
CONTINUOUS
 62
     7
 10
47.06817500182251
 20
33.35485472039974
 30
0.0
 11
85.46956521739116
 21
-5.046535495169042
 31
0.0
  0
LINE
  5
7D
  8
PATTERN_FILL
  6
CONTINUOUS
 62
     7
 10
44.44134584058702
 20
33.18168388163519
 30
0.0
 11
85.59130434782605
 21
-7.968274625603822
 31
0.0
  0
LINE
  5
7E
  8
PATTERN_FILL
  6
CONTINUOUS
 62
     7
 10
41.89078552609021
 20
32.93224419613205
 30
0.0
 11
85.71304347826094
 21
-10.89001375603861
 31
0.0
  0
LINE
  5
7F
  8
PATTERN_FILL
  6
CONTINUOUS
 62
     7
 10
41.03199999999993
 20
30.99102972222229
 30
0.0
 11
85.8347826086956
 21
-13.81175288647337
 31
0.0
  0
LINE
  5
80
  8
PATTERN_FILL
  6
CONTINUOUS
 62
     7
 10
40.91999999999985
 20
28.30302972222229
 30
0.0
 11
85.9565217391305
 21
-16.73349201690815
 31
0.0
  0
LINE
  5
81
  8
PATTERN_FILL
  6
CONTINUOUS
 62
     7
 10
40.80799999999999
 20
25.61502972222229
 30
0.0
 11
86.07826086956516
 21
-19.65523114734291
 31
0.0
  0
LINE
  5
82
  8
PATTERN_FILL
  6
CONTINUOUS
 62
     7
 10
40.69599999999991
 20
22.92702972222227
 30
0.0
 11
86.20000000000005
 21
-22.57697027777772
 31
0.0
  0
LINE
  5
83
  8
PATTERN_FILL
  6
CONTINUOUS
 62
     7
 10
40.47199999999998
 20
17.55102972222228
 30
0.0
 11
83.20797151062106
 21
-25.18494178839893
 31
0.0
  0
LINE
  5
84
  8
PATTERN_FILL
  6
CONTINUOUS
 62
     7
 10
40.3599999999999
 20
14.86302972222227
 30
0.0
 11
80.5716054016757
 21
-25.34857567945347
 31
0.0
  0
LINE
  5
85
  8
PATTERN_FILL
  6
CONTINUOUS
 62
     7
 10
40.24800000000005
 20
12.17502972222231
 30
0.0
 11
77.91397093137152
 21
-25.49094120914917
 31
0.0
  0
LINE
  5
86
  8
PATTERN_FILL
  6
CONTINUOUS
 62
     7
 10
40.13599999999997
 20
9.487029722222289
 30
0.0
 11
75.23457501575308
 21
-25.61154529353076
 31
0.0
  0
LINE
  5
87
  8
PATTERN_FILL
  6
CONTINUOUS
 62
     7
 10
40.02399999999989
 20
6.799029722222297
 30
0.0
 11
72.53290027107118
 21
-25.70987054884886
 31
0.0
  0
LINE
  5
88
  8
PATTERN_FILL
  6
CONTINUOUS
 62
     7
 10
39.91200000000003
 20
4.111029722222295
 30
0.0
 11
69.80840333097558
 21
-25.78537360875339
 31
0.0
  0
LINE
  5
89
  8
PATTERN_FILL
  6
CONTINUOUS
 62
     7
 10
39.79999999999995
 20
1.423029722222292
 30
0.0
 11
67.06051300914964
 21
-25.83748328692741
 31
0.0
  0
LINE
  5
8A
  8
PATTERN_FILL
  6
CONTINUOUS
 62
     7
 10
39.68799999999987
 20
-1.26497027777771
 30
0.0
 11
64.28862828964066
 21
-25.86559856741851
 31
0.0
  0
LINE
  5
8B
  8
PATTERN_FILL
  6
CONTINUOUS
 62
     7
 10
39.57600000000002
 20
-3.952970277777684
 30
0.0
 11
61.49211612468389
 21
-25.86908640246171
 31
0.0
  0
LINE
  5
8C
  8
PATTERN_FILL
  6
CONTINUOUS
 62
     7
 10
39.46399999999994
 20
-6.640970277777686
 30
0.0
 11
58.67030901694625
 21
-25.84727929472398
 31
0.0
  0
LINE
  5
8D
  8
PATTERN_FILL
  6
CONTINUOUS
 62
     7
 10
39.35199999999986
 20
-9.328970277777689
 30
0.0
 11
55.82250235977199
 21
-25.79947263754982
 31
0.0
  0
LINE
  5
8E
  8
PATTERN_FILL
  6
CONTINUOUS
 62
     7
 10
39.24000000000001
 20
-12.01697027777768
 30
0.0
 11
52.94795150509526
 21
-25.72492178287293
 31
0.0
  0
LINE
  5
8F
  8
PATTERN_FILL
  6
CONTINUOUS
 62
     7
 10
39.12799999999993
 20
-14.70497027777771
 30
0.0
 11
50.04586852407078
 21
-25.62283880184842
 31
0.0
  0
LINE
  5
90
  8
PATTERN_FILL
  6
CONTINUOUS
 62
     7
 10
39.01599999999985
 20
-17.39297027777768
 30
0.0
 11
47.11541862004947
 21
-25.49238889782727
 31
0.0
  0
LINE
  5
91
  8
PATTERN_FILL
  6
CONTINUOUS
 62
     7
 10
38.904
 20
-20.08097027777767
 30
0.0
 11
44.15571614708506
 21
-25.33268642486282
 31
0.0
  0
LINE
  5
92
  8
PATTERN_FILL
  6
CONTINUOUS
 62
     7
 10
38.79199999999992
 20
-22.76897027777766
 30
0.0
 11
41.16582017950896
 21
-25.1427904572867
 31
0.0
  0
LINE
  5
93
  8
PATTERN_FILL
  6
CONTINUOUS
 62
     7
 10
-81.9436424124849
 20
33.0793873097374
 30
0.0
 11
-83.96521739130435
 21
31.0578123309179
 31
0.0
  0
LINE
  5
94
  8
PATTERN_FILL
  6
CONTINUOUS
 62
     7
 10
-78.93081781500393
 20
33.29221190721832
 30
0.0
 11
-84.08695652173918
 21
28.1360732004831
 31
0.0
  0
LINE
  5
95
  8
PATTERN_FILL
  6
CONTINUOUS
 62
     7
 10
-75.95587861745804
 20
33.46715110476427
 30
0.0
 11
-84.20869565217396
 21
25.21433407004835
 31
0.0
  0
LINE
  5
96
  8
PATTERN_FILL
  6
CONTINUOUS
 62
     7
 10
-73.01735655368242
 20
33.60567316853988
 30
0.0
 11
-84.33043478260873
 21
22.29259493961354
 31
0.0
  0
LINE
  5
97
  8
PATTERN_FILL
  6
CONTINUOUS
 62
     7
 10
-70.11388969187692
 20
33.70914003034537
 30
0.0
 11
-84.45217391304351
 21
19.37085580917878
 31
0.0
  0
LINE
  5
98
  8
PATTERN_FILL
  6
CONTINUOUS
 62
     7
 10
-67.24421198187355
 20
33.77881774034873
 30
0.0
 11
-84.57391304347829
 21
16.44911667874401
 31
0.0
  0
LINE
  5
99
  8
PATTERN_FILL
  6
CONTINUOUS
 62
     7
 10
-64.40714409473753
 20
33.81588562748475
 30
0.0
 11
-84.69565217391312
 21
13.52737754830919
 31
0.0
  0
LINE
  5
9A
  8
PATTERN_FILL
  6
CONTINUOUS
 62
     7
 10
-61.60158536433801
 20
33.82144435788426
 30
0.0
 11
-84.8173913043479
 21
10.60563841787443
 31
0.0
  0
LINE
  5
9B
  8
PATTERN_FILL
  6
CONTINUOUS
 62
     7
 10
-58.82650667284042
 20
33.79652304938182
 30
0.0
 11
-84.93913043478267
 21
7.683899287439626
 31
0.0
  0
LINE
  5
9C
  8
PATTERN_FILL
  6
CONTINUOUS
 62
     7
 10
-56.0809441482063
 20
33.74208557401599
 30
0.0
 11
-85.06086956521744
 21
4.762160157004882
 31
0.0
  0
LINE
  5
9D
  8
PATTERN_FILL
  6
CONTINUOUS
 62
     7
 10
-53.36399356306106
 20
33.65903615916119
 30
0.0
 11
-85.18260869565222
 21
1.84042102657008
 31
0.0
  0
LINE
  5
9E
  8
PATTERN_FILL
  6
CONTINUOUS
 62
     7
 10
-50.67480534169408
 20
33.54822438052815
 30
0.0
 11
-85.304347826087
 21
-1.081318103864707
 31
0.0
  0
LINE
  5
9F
  8
PATTERN_FILL
  6
CONTINUOUS
 62
     7
 10
-48.01258009627838
 20
33.41044962594395
 30
0.0
 11
-85.42608695652177
 21
-4.003057234299465
 31
0.0
  0
LINE
  5
A0
  8
PATTERN_FILL
  6
CONTINUOUS
 62
     7
 10
-45.37656462523097
 20
33.24646509699133
 30
0.0
 11
-85.54782608695655
 21
-6.924796364734238
 31
0.0
  0
LINE
  5
A1
  8
PATTERN_FILL
  6
CONTINUOUS
 62
     7
 10
-42.76604831647603
 20
33.05698140574626
 30
0.0
 11
-85.66956521739132
 21
-9.846535495169025
 31
0.0
  0
LINE
  5
A2
  8
PATTERN_FILL
  6
CONTINUOUS
 62
     7
 10
-41.08222683100803
 20
31.94080289121425
 30
0.0
 11
-85.7913043478261
 21
-12.76827462560378
 31
0.0
  0
LINE
  5
A3
  8
PATTERN_FILL
  6
CONTINUOUS
 62
     7
 10
-40.96000000000004
 20
29.26302972222229
 30
0.0
 11
-85.91304347826087
 21
-15.6900137560386
 31
0.0
  0
LINE
  5
A4
  8
PATTERN_FILL
  6
CONTINUOUS
 62
     7
 10
-40.84800000000007
 20
26.57502972222227
 30
0.0
 11
-86.03478260869565
 21
-18.61175288647337
 31
0.0
  0
LINE
  5
A5
  8
PATTERN_FILL
  6
CONTINUOUS
 62
     7
 10
-40.73599999999999
 20
23.88702972222228
 30
0.0
 11
-86.15652173913043
 21
-21.53349201690814
 31
0.0
  0
LINE
  5
A6
  8
PATTERN_FILL
  6
CONTINUOUS
 62
     7
 10
-40.62400000000002
 20
21.19902972222226
 30
0.0
 11
-86.2782608695652
 21
-24.45523114734293
 31
0.0
  0
LINE
  5
A7
  8
PATTERN_FILL
  6
CONTINUOUS
 62
     7
 10
-40.51200000000006
 20
18.51102972222228
 30
0.0
 11
-84.14446673727798
 21
-25.12143701505569
 31
0.0
  0
LINE
  5
A8
  8
PATTERN_FILL
  6
CONTINUOUS
 62
     7
 10
-40.40000000000003
 20
15.82302972222234
 30
0.0
 11
-81.51558135197075
 21
-25.29255162974839
 31
0.0
  0
LINE
  5
A9
  8
PATTERN_FILL
  6
CONTINUOUS
 62
     7
 10
-40.28800000000001
 20
13.13502972222228
 30
0.0
 11
-78.86559811567201
 21
-25.44256839344967
 31
0.0
  0
LINE
  5
AA
  8
PATTERN_FILL
  6
CONTINUOUS
 62
     7
 10
-40.17600000000004
 20
10.44702972222228
 30
0.0
 11
-76.1940322419963
 21
-25.57100251977396
 31
0.0
  0
LINE
  5
AB
  8
PATTERN_FILL
  6
CONTINUOUS
 62
     7
 10
-40.06400000000002
 20
7.759029722222305
 30
0.0
 11
-73.50037521134266
 21
-25.67734548912036
 31
0.0
  0
LINE
  5
AC
  8
PATTERN_FILL
  6
CONTINUOUS
 62
     7
 10
-39.952
 20
5.071029722222331
 30
0.0
 11
-70.7840931394013
 21
-25.76106341717896
 31
0.0
  0
LINE
  5
AD
  8
PATTERN_FILL
  6
CONTINUOUS
 62
     7
 10
-39.84000000000003
 20
2.3830297222223
 30
0.0
 11
-68.04462499690686
 21
-25.82159527468453
 31
0.0
  0
LINE
  5
AE
  8
PATTERN_FILL
  6
CONTINUOUS
 62
     7
 10
-39.72800000000007
 20
-0.3049702777777163
 30
0.0
 11
-65.28138066369047
 21
-25.85835094146814
 31
0.0
  0
LINE
  5
AF
  8
PATTERN_FILL
  6
CONTINUOUS
 62
     7
 10
-39.61600000000004
 20
-2.99297027777769
 30
0.0
 11
-62.5
 21
-25.87697027777769
 31
0.0
  0
LINE
  5
B0
  8
PATTERN_FILL
  6
CONTINUOUS
 62
     7
 10
-39.50400000000002
 20
-5.680970277777678
 30
0.0
 11
-59.68104449731413
 21
-25.85801477509179
 31
0.0
  0
LINE
  5
B1
  8
PATTERN_FILL
  6
CONTINUOUS
 62
     7
 10
-39.39200000000005
 20
-8.36897027777768
 30
0.0
 11
-56.84260673082235
 21
-25.81957700860004
 31
0.0
  0
LINE
  5
B2
  8
PATTERN_FILL
  6
CONTINUOUS
 62
     7
 10
-39.28000000000003
 20
-11.0569702777777
 30
0.0
 11
-53.97769550581449
 21
-25.75466578359216
 31
0.0
  0
LINE
  5
B3
  8
PATTERN_FILL
  6
CONTINUOUS
 62
     7
 10
-39.16800000000006
 20
-13.7449702777777
 30
0.0
 11
-51.08553874365896
 21
-25.66250902143662
 31
0.0
  0
LINE
  5
B4
  8
PATTERN_FILL
  6
CONTINUOUS
 62
     7
 10
-39.05600000000004
 20
-16.43297027777765
 30
0.0
 11
-48.16531882170358
 21
-25.54228909948118
 31
0.0
  0
LINE
  5
B5
  8
PATTERN_FILL
  6
CONTINUOUS
 62
     7
 10
-38.94400000000002
 20
-19.12097027777768
 30
0.0
 11
-45.2161687384887
 21
-25.39313901626632
 31
0.0
  0
LINE
  5
B6
  8
PATTERN_FILL
  6
CONTINUOUS
 62
     7
 10
-38.83200000000005
 20
-21.80897027777771
 30
0.0
 11
-42.23716785044655
 21
-25.21413812822424
 31
0.0
  0
LINE
  5
B7
  8
PATTERN_FILL
  6
CONTINUOUS
 62
     7
 10
-44.13681253074759
 20
33.15984225296984
 30
0.0
 11
-40.99130434782609
 21
30.01433407004833
 31
0.0
  0
LINE
  5
B8
  8
PATTERN_FILL
  6
CONTINUOUS
 62
     7
 10
-47.13593091418704
 20
33.35896063640925
 30
0.0
 11
-40.86956521739131
 21
27.09259493961355
 31
0.0
  0
LINE
  5
B9
  8
PATTERN_FILL
  6
CONTINUOUS
 62
     7
 10
-50.09770120265722
 20
33.52073092487947
 30
0.0
 11
-40.74782608695654
 21
24.17085580917879
 31
0.0
  0
LINE
  5
BA
  8
PATTERN_FILL
  6
CONTINUOUS
 62
     7
 10
-53.02355239553219
 20
33.64658211775441
 30
0.0
 11
-40.62608695652176
 21
21.24911667874399
 31
0.0
  0
LINE
  5
BB
  8
PATTERN_FILL
  6
CONTINUOUS
 62
     7
 10
-55.91481105282753
 20
33.73784077504975
 30
0.0
 11
-40.50434782608698
 21
18.3273775483092
 31
0.0
  0
LINE
  5
BC
  8
PATTERN_FILL
  6
CONTINUOUS
 62
     7
 10
-58.77271126219716
 20
33.79574098441938
 30
0.0
 11
-40.38260869565221
 21
15.40563841787443
 31
0.0
  0
LINE
  5
BD
  8
PATTERN_FILL
  6
CONTINUOUS
 62
     7
 10
-61.59840338574594
 20
33.82143310796818
 30
0.0
 11
-40.26086956521743
 21
12.48389928743964
 31
0.0
  0
LINE
  5
BE
  8
PATTERN_FILL
  6
CONTINUOUS
 62
     7
 10
-64.39296176467445
 20
33.81599148689671
 30
0.0
 11
-40.1391304347826
 21
9.562160157004868
 31
0.0
  0
LINE
  5
BF
  8
PATTERN_FILL
  6
CONTINUOUS
 62
     7
 10
-67.15739152983866
 20
33.78042125206088
 30
0.0
 11
-40.01739130434783
 21
6.64042102657007
 31
0.0
  0
LINE
  5
C0
  8
PATTERN_FILL
  6
CONTINUOUS
 62
     7
 10
-69.8926346420377
 20
33.71566436425991
 30
0.0
 11
-39.89565217391305
 21
3.718681896135319
 31
0.0
  0
LINE
  5
C1
  8
PATTERN_FILL
  6
CONTINUOUS
 62
     7
 10
-72.59957526605626
 20
33.62260498827851
 30
0.0
 11
-39.77391304347827
 21
0.7969427657005106
 31
0.0
  0
LINE
  5
C2
  8
PATTERN_FILL
  6
CONTINUOUS
 62
     7
 10
-75.2790445662605
 20
33.50207428848275
 30
0.0
 11
-39.6521739130435
 21
-2.124796364734241
 31
0.0
  0
LINE
  5
C3
  8
PATTERN_FILL
  6
CONTINUOUS
 62
     7
 10
-77.93182499817749
 20
33.35485472039974
 30
0.0
 11
-39.53043478260872
 21
-5.046535495169042
 31
0.0
  0
LINE
  5
C4
  8
PATTERN_FILL
  6
CONTINUOUS
 62
     7
 10
-80.55865415941298
 20
33.18168388163519
 30
0.0
 11
-39.40869565217395
 21
-7.968274625603822
 31
0.0
  0
LINE
  5
C5
  8
PATTERN_FILL
  6
CONTINUOUS
 62
     7
 10
-83.10921447390979
 20
32.93224419613205
 30
0.0
 11
-39.28695652173917
 21
-10.89001375603861
 31
0.0
  0
LINE
  5
C6
  8
PATTERN_FILL
  6
CONTINUOUS
 62
     7
 10
-83.96800000000007
 20
30.99102972222229
 30
0.0
 11
-39.1652173913044
 21
-13.81175288647337
 31
0.0
  0
LINE
  5
C7
  8
PATTERN_FILL
  6
CONTINUOUS
 62
     7
 10
-84.08000000000004
 20
28.30302972222229
 30
0.0
 11
-39.04347826086962
 21
-16.73349201690815
 31
0.0
  0
LINE
  5
C8
  8
PATTERN_FILL
  6
CONTINUOUS
 62
     7
 10
-84.19200000000001
 20
25.61502972222229
 30
0.0
 11
-38.92173913043484
 21
-19.65523114734291
 31
0.0
  0
LINE
  5
C9
  8
PATTERN_FILL
  6
CONTINUOUS
 62
     7
 10
-84.30400000000003
 20
22.92702972222227
 30
0.0
 11
-38.80000000000001
 21
-22.57697027777772
 31
0.0
  0
LINE
  5
CA
  8
PATTERN_FILL
  6
CONTINUOUS
 62
     7
 10
-84.41600000000005
 20
20.23902972222228
 30
0.0
 11
-39.17646041376338
 21
-25.00050986401437
 31
0.0
  0
LINE
  5
CB
  8
PATTERN_FILL
  6
CONTINUOUS
 62
     7
 10
-84.52800000000002
 20
17.55102972222228
 30
0.0
 11
-41.79202848937882
 21
-25.18494178839893
 31
0.0
  0
LINE
  5
CC
  8
PATTERN_FILL
  6
CONTINUOUS
 62
     7
 10
-84.63999999999999
 20
14.86302972222227
 30
0.0
 11
-44.4283945983243
 21
-25.34857567945347
 31
0.0
  0
LINE
  5
CD
  8
PATTERN_FILL
  6
CONTINUOUS
 62
     7
 10
-84.75200000000007
 20
12.17502972222231
 30
0.0
 11
-47.08602906862859
 21
-25.49094120914917
 31
0.0
  0
LINE
  5
CE
  8
PATTERN_FILL
  6
CONTINUOUS
 62
     7
 10
-84.86400000000003
 20
9.487029722222289
 30
0.0
 11
-49.76542498424698
 21
-25.61154529353076
 31
0.0
  0
LINE
  5
CF
  8
PATTERN_FILL
  6
CONTINUOUS
 62
     7
 10
-84.976
 20
6.799029722222297
 30
0.0
 11
-52.46709972892887
 21
-25.70987054884886
 31
0.0
  0
LINE
  5
D0
  8
PATTERN_FILL
  6
CONTINUOUS
 62
     7
 10
-85.08800000000002
 20
4.111029722222295
 30
0.0
 11
-55.19159666902431
 21
-25.78537360875339
 31
0.0
  0
LINE
  5
D1
  8
PATTERN_FILL
  6
CONTINUOUS
 62
     7
 10
-85.20000000000005
 20
1.423029722222292
 30
0.0
 11
-57.9394869908503
 21
-25.83748328692741
 31
0.0
  0
LINE
  5
D2
  8
PATTERN_FILL
  6
CONTINUOUS
 62
     7
 10
-85.31200000000001
 20
-1.26497027777771
 30
0.0
 11
-60.71137171035923
 21
-25.86559856741851
 31
0.0
  0
LINE
  5
D3
  8
PATTERN_FILL
  6
CONTINUOUS
 62
     7
 10
-85.42400000000004
 20
-3.952970277777684
 30
0.0
 11
-63.507883875316
 21
-25.86908640246171
 31
0.0
  0
LINE
  5
D4
  8
PATTERN_FILL
  6
CONTINUOUS
 62
     7
 10
-85.53600000000006
 20
-6.640970277777686
 30
0.0
 11
-66.32969098305375
 21
-25.84727929472398
 31
0.0
  0
LINE
  5
D5
  8
PATTERN_FILL
  6
CONTINUOUS
 62
     7
 10
-85.64800000000002
 20
-9.328970277777689
 30
0.0
 11
-69.1774976402279
 21
-25.79947263754982
 31
0.0
  0
LINE
  5
D6
  8
PATTERN_FILL
  6
CONTINUOUS
 62
     7
 10
-85.76000000000005
 20
-12.01697027777768
 30
0.0
 11
-72.0520484949048
 21
-25.72492178287293
 31
0.0
  0
LINE
  5
D7
  8
PATTERN_FILL
  6
CONTINUOUS
 62
     7
 10
-85.87200000000001
 20
-14.70497027777771
 30
0.0
 11
-74.95413147592933
 21
-25.62283880184842
 31
0.0
  0
LINE
  5
D8
  8
PATTERN_FILL
  6
CONTINUOUS
 62
     7
 10
-85.98400000000004
 20
-17.39297027777768
 30
0.0
 11
-77.88458137995042
 21
-25.49238889782727
 31
0.0
  0
LINE
  5
D9
  8
PATTERN_FILL
  6
CONTINUOUS
 62
     7
 10
-86.096
 20
-20.08097027777767
 30
0.0
 11
-80.84428385291488
 21
-25.33268642486282
 31
0.0
  0
LINE
  5
DA
  8
PATTERN_FILL
  6
CONTINUOUS
 62
     7
 10
-86.20800000000003
 20
-22.76897027777766
 30
0.0
 11
-83.83417982049099
 21
-25.1427904572867
 31
0.0
  0
LINE
  5
DB
  8
PATTERN_FILL
  6
CONTINUOUS
 62
     7
 10
-10.71446959905916
 20
33.82302972222226
 30
0.0
 11
-14.2083453058396
 21
30.3291540154418
 31
0.0
  0
LINE
  5
DC
  8
PATTERN_FILL
  6
CONTINUOUS
 62
     7
 10
-7.914469599059146
 20
33.82302972222226
 30
0.0
 11
-14.38590167731121
 21
27.35159764397018
 31
0.0
  0
LINE
  5
DD
  8
PATTERN_FILL
  6
CONTINUOUS
 62
     7
 10
-5.545673715253486
 20
33.39182560602792
 30
0.0
 11
-14.56345804878288
 21
24.37404127249854
 31
0.0
  0
LINE
  5
DE
  8
PATTERN_FILL
  6
CONTINUOUS
 62
     7
 10
-5.626332151467466
 20
30.51116716981392
 30
0.0
 11
-14.74101442025449
 21
21.39648490102691
 31
0.0
  0
LINE
  5
DF
  8
PATTERN_FILL
  6
CONTINUOUS
 62
     7
 10
-5.706990587681446
 20
27.63050873359995
 30
0.0
 11
-14.9185707917261
 21
18.4189285295553
 31
0.0
  0
LINE
  5
E0
  8
PATTERN_FILL
  6
CONTINUOUS
 62
     7
 10
-5.787649023895426
 20
24.74985029738596
 30
0.0
 11
-15.09612716319776
 21
15.44137215808368
 31
0.0
  0
LINE
  5
E1
  8
PATTERN_FILL
  6
CONTINUOUS
 62
     7
 10
6.085530400940911
 20
33.82302972222226
 30
0.0
 11
5.548633123761022
 21
33.2861324450424
 31
0.0
  0
LINE
  5
E2
  8
PATTERN_FILL
  6
CONTINUOUS
 62
     7
 10
-5.868307460109463
 20
21.86919186117197
 30
0.0
 11
-15.27368353466937
 21
12.46381578661206
 31
0.0
  0
LINE
  5
E3
  8
PATTERN_FILL
  6
CONTINUOUS
 62
     7
 10
8.885530400940866
 20
33.82302972222226
 30
0.0
 11
5.624897715200689
 21
30.56239703648208
 31
0.0
  0
LINE
  5
E4
  8
PATTERN_FILL
  6
CONTINUOUS
 62
     7
 10
-5.923558148910047
 20
19.01394117237136
 30
0.0
 11
-15.45123990614098
 21
9.486259415140438
 31
0.0
  0
LINE
  5
E5
  8
PATTERN_FILL
  6
CONTINUOUS
 62
     7
 10
11.68553040094088
 20
33.82302972222226
 30
0.0
 11
5.701162306640413
 21
27.83866162792177
 31
0.0
  0
LINE
  5
E6
  8
PATTERN_FILL
  6
CONTINUOUS
 62
     7
 10
-6.029624332537423
 20
16.10787498874399
 30
0.0
 11
-15.62879627761265
 21
6.508703043668799
 31
0.0
  0
LINE
  5
E7
  8
PATTERN_FILL
  6
CONTINUOUS
 62
     7
 10
13.70269324331497
 20
33.04019256459641
 30
0.0
 11
5.77742689808008
 21
25.11492621936151
 31
0.0
  0
LINE
  5
E8
  8
PATTERN_FILL
  6
CONTINUOUS
 62
     7
 10
-6.110282768751404
 20
13.22721655253004
 30
0.0
 11
-15.80635264908426
 21
3.531146672197199
 31
0.0
  0
LINE
  5
E9
  8
PATTERN_FILL
  6
CONTINUOUS
 62
     7
 10
14.18489572445725
 20
30.72239504573864
 30
0.0
 11
5.853691489519747
 21
22.39119081080118
 31
0.0
  0
LINE
  5
EA
  8
PATTERN_FILL
  6
CONTINUOUS
 62
     7
 10
-6.190941204965384
 20
10.34655811631605
 30
0.0
 11
-15.98390902055587
 21
0.5535903007255634
 31
0.0
  0
LINE
  5
EB
  8
PATTERN_FILL
  6
CONTINUOUS
 62
     7
 10
14.34246785598646
 20
28.07996717726786
 30
0.0
 11
5.929956080959414
 21
19.66745540224086
 31
0.0
  0
LINE
  5
EC
  8
PATTERN_FILL
  6
CONTINUOUS
 62
     7
 10
-6.271599641179364
 20
7.46589968010203
 30
0.0
 11
-16.16146539202754
 21
-2.423966070746101
 31
0.0
  0
LINE
  5
ED
  8
PATTERN_FILL
  6
CONTINUOUS
 62
     7
 10
14.50003998751566
 20
25.43753930879708
 30
0.0
 11
6.006220672399138
 21
16.94371999368056
 31
0.0
  0
LINE
  5
EE
  8
PATTERN_FILL
  6
CONTINUOUS
 62
     7
 10
-6.352258077393401
 20
4.58524124388806
 30
0.0
 11
-16.33902176349915
 21
-5.401522442217715
 31
0.0
  0
LINE
  5
EF
  8
PATTERN_FILL
  6
CONTINUOUS
 62
     7
 10
14.65761211904487
 20
22.79511144032629
 30
0.0
 11
6.082485263838805
 21
14.21998458512024
 31
0.0
  0
LINE
  5
F0
  8
PATTERN_FILL
  6
CONTINUOUS
 62
     7
 10
-6.432916513607381
 20
1.704582807674054
 30
0.0
 11
-16.51657813497081
 21
-8.379078813689357
 31
0.0
  0
LINE
  5
F1
  8
PATTERN_FILL
  6
CONTINUOUS
 62
     7
 10
14.81518425057408
 20
20.15268357185552
 30
0.0
 11
6.158749855278529
 21
11.49624917655994
 31
0.0
  0
LINE
  5
F2
  8
PATTERN_FILL
  6
CONTINUOUS
 62
     7
 10
-6.513574949821361
 20
-1.176075628539937
 30
0.0
 11
-16.69413450644242
 21
-11.35663518516099
 31
0.0
  0
LINE
  5
F3
  8
PATTERN_FILL
  6
CONTINUOUS
 62
     7
 10
14.97275638210328
 20
17.51025570338473
 30
0.0
 11
6.235014446718196
 21
8.772513767999627
 31
0.0
  0
LINE
  5
F4
  8
PATTERN_FILL
  6
CONTINUOUS
 62
     7
 10
-6.594233386035341
 20
-4.056734064753929
 30
0.0
 11
-16.87169087791403
 21
-14.33419155663261
 31
0.0
  0
LINE
  5
F5
  8
PATTERN_FILL
  6
CONTINUOUS
 62
     7
 10
15.13032851363255
 20
14.86782783491392
 30
0.0
 11
6.311279038157863
 21
6.048778359439286
 31
0.0
  0
LINE
  5
F6
  8
PATTERN_FILL
  6
CONTINUOUS
 62
     7
 10
-6.674891822249378
 20
-6.937392500967956
 30
0.0
 11
-17.0492472493857
 21
-17.31174792810429
 31
0.0
  0
LINE
  5
F7
  8
PATTERN_FILL
  6
CONTINUOUS
 62
     7
 10
15.28790064516176
 20
12.22539996644318
 30
0.0
 11
6.387543629597587
 21
3.32504295087902
 31
0.0
  0
LINE
  5
F8
  8
PATTERN_FILL
  6
CONTINUOUS
 62
     7
 10
-6.755550258463359
 20
-9.818050937181905
 30
0.0
 11
-17.22680362085731
 21
-20.28930429957587
 31
0.0
  0
LINE
  5
F9
  8
PATTERN_FILL
  6
CONTINUOUS
 62
     7
 10
15.44547277669096
 20
9.58297209797243
 30
0.0
 11
6.463808221037254
 21
0.6013075423187395
 31
0.0
  0
LINE
  5
FA
  8
PATTERN_FILL
  6
CONTINUOUS
 62
     7
 10
-6.836208694677339
 20
-12.69870937339586
 30
0.0
 11
-17.40435999232892
 21
-23.26686067104748
 31
0.0
  0
LINE
  5
FB
  8
PATTERN_FILL
  6
CONTINUOUS
 62
     7
 10
15.60304490822017
 20
6.940544229501601
 30
0.0
 11
6.540072812476978
 21
-2.122427866241626
 31
0.0
  0
LINE
  5
FC
  8
PATTERN_FILL
  6
CONTINUOUS
 62
     7
 10
-6.916867130891319
 20
-15.57936780960992
 30
0.0
 11
-16.00664663534087
 21
-24.66914731405949
 31
0.0
  0
LINE
  5
FD
  8
PATTERN_FILL
  6
CONTINUOUS
 62
     7
 10
15.76061703974938
 20
4.298116361030818
 30
0.0
 11
6.616337403916646
 21
-4.846163274801928
 31
0.0
  0
LINE
  5
FE
  8
PATTERN_FILL
  6
CONTINUOUS
 62
     7
 10
-6.997525567105299
 20
-18.46002624582392
 30
0.0
 11
-13.04106386620538
 21
-24.50356454492396
 31
0.0
  0
LINE
  5
FF
  8
PATTERN_FILL
  6
CONTINUOUS
 62
     7
 10
15.91818917127858
 20
1.655688492560049
 30
0.0
 11
6.692601995356313
 21
-7.569898683362229
 31
0.0
  0
LINE
  5
100
  8
PATTERN_FILL
  6
CONTINUOUS
 62
     7
 10
-7.078184003319279
 20
-21.34068468203789
 30
0.0
 11
-10.11073290334519
 21
-24.37323358206377
 31
0.0
  0
LINE
  5
101
  8
PATTERN_FILL
  6
CONTINUOUS
 62
     7
 10
16.07576130280785
 20
-0.9867393759107266
 30
0.0
 11
6.768866586796037
 21
-10.29363409192253
 31
0.0
  0
LINE
  5
102
  8
PATTERN_FILL
  6
CONTINUOUS
 62
     7
 10
-7.158842439533316
 20
-24.22134311825187
 30
0.0
 11
-7.214375462574083
 21
-24.27687614129266
 31
0.0
  0
LINE
  5
103
  8
PATTERN_FILL
  6
CONTINUOUS
 62
     7
 10
16.23333343433706
 20
-3.62916724438151
 30
0.0
 11
6.845131178235704
 21
-13.01736950048285
 31
0.0
  0
LINE
  5
104
  8
PATTERN_FILL
  6
CONTINUOUS
 62
     7
 10
16.39090556586626
 20
-6.271595112852307
 30
0.0
 11
6.921395769675428
 21
-15.74110490904318
 31
0.0
  0
LINE
  5
105
  8
PATTERN_FILL
  6
CONTINUOUS
 62
     7
 10
16.54847769739547
 20
-8.914022981323061
 30
0.0
 11
6.997660361115095
 21
-18.46484031760346
 31
0.0
  0
LINE
  5
106
  8
PATTERN_FILL
  6
CONTINUOUS
 62
     7
 10
16.70604982892468
 20
-11.55645084979385
 30
0.0
 11
7.073924952554762
 21
-21.18857572616377
 31
0.0
  0
LINE
  5
107
  8
PATTERN_FILL
  6
CONTINUOUS
 62
     7
 10
16.86362196045394
 20
-14.19887871826466
 30
0.0
 11
7.150189543994486
 21
-23.9123111347241
 31
0.0
  0
LINE
  5
108
  8
PATTERN_FILL
  6
CONTINUOUS
 62
     7
 10
17.02119409198315
 20
-16.84130658673545
 30
0.0
 11
9.5118368098573
 21
-24.35066386886126
 31
0.0
  0
LINE
  5
109
  8
PATTERN_FILL
  6
CONTINUOUS
 62
     7
 10
17.17876622351235
 20
-19.48373445520621
 30
0.0
 11
12.19973874408629
 21
-24.4627619346323
 31
0.0
  0
LINE
  5
10A
  8
PATTERN_FILL
  6
CONTINUOUS
 62
     7
 10
17.33633835504156
 20
-22.12616232367695
 30
0.0
 11
14.86132241169344
 21
-24.60117826702509
 31
0.0
  0
LINE
  5
10B
  8
PATTERN_FILL
  6
CONTINUOUS
 62
     7
 10
13.16424709259547
 20
33.52613593086588
 30
0.0
 11
13.81881658653634
 21
32.87156643692499
 31
0.0
  0
LINE
  5
10C
  8
PATTERN_FILL
  6
CONTINUOUS
 62
     7
 10
10.06735330123905
 20
33.82302972222226
 30
0.0
 11
14.24938088503995
 21
29.64100213842136
 31
0.0
  0
LINE
  5
10D
  8
PATTERN_FILL
  6
CONTINUOUS
 62
     7
 10
7.267353301239041
 20
33.82302972222226
 30
0.0
 11
14.42693725651156
 21
26.66344576694974
 31
0.0
  0
LINE
  5
10E
  8
PATTERN_FILL
  6
CONTINUOUS
 62
     7
 10
5.564314925478698
 20
32.72606809798262
 30
0.0
 11
14.60449362798317
 21
23.68588939547811
 31
0.0
  0
LINE
  5
10F
  8
PATTERN_FILL
  6
CONTINUOUS
 62
     7
 10
5.644973361692678
 20
29.84540966176863
 30
0.0
 11
14.78204999945484
 21
20.70833302400646
 31
0.0
  0
LINE
  5
110
  8
PATTERN_FILL
  6
CONTINUOUS
 62
     7
 10
5.725631797906658
 20
26.96475122555466
 30
0.0
 11
14.95960637092645
 21
17.73077665253487
 31
0.0
  0
LINE
  5
111
  8
PATTERN_FILL
  6
CONTINUOUS
 62
     7
 10
5.806290234120638
 20
24.08409278934067
 30
0.0
 11
15.13716274239806
 21
14.75322028106325
 31
0.0
  0
LINE
  5
112
  8
PATTERN_FILL
  6
CONTINUOUS
 62
     7
 10
-6.732646698760959
 20
33.82302972222226
 30
0.0
 11
-5.566258859499328
 21
32.65664188296067
 31
0.0
  0
LINE
  5
113
  8
PATTERN_FILL
  6
CONTINUOUS
 62
     7
 10
5.886948670334618
 20
21.2034343531267
 30
0.0
 11
15.31471911386973
 21
11.77566390959163
 31
0.0
  0
LINE
  5
114
  8
PATTERN_FILL
  6
CONTINUOUS
 62
     7
 10
-9.53264669876097
 20
33.82302972222226
 30
0.0
 11
-5.642523450939052
 21
29.93290647440035
 31
0.0
  0
LINE
  5
115
  8
PATTERN_FILL
  6
CONTINUOUS
 62
     7
 10
5.967607106548655
 20
18.32277591691269
 30
0.0
 11
15.49227548534134
 21
8.798107538119993
 31
0.0
  0
LINE
  5
116
  8
PATTERN_FILL
  6
CONTINUOUS
 62
     7
 10
-12.3219813343884
 20
33.81236435784973
 30
0.0
 11
-5.718788042378719
 21
27.20917106584005
 31
0.0
  0
LINE
  5
117
  8
PATTERN_FILL
  6
CONTINUOUS
 62
     7
 10
6.048265542762636
 20
15.44211748069873
 30
0.0
 11
15.66983185681295
 21
5.820551166648396
 31
0.0
  0
LINE
  5
118
  8
PATTERN_FILL
  6
CONTINUOUS
 62
     7
 10
-13.94382247887478
 20
32.63420550233612
 30
0.0
 11
-5.795052633818386
 21
24.48543565727974
 31
0.0
  0
LINE
  5
119
  8
PATTERN_FILL
  6
CONTINUOUS
 62
     7
 10
6.128923978976616
 20
12.56145904448471
 30
0.0
 11
15.84738822828461
 21
2.842994795176732
 31
0.0
  0
LINE
  5
11A
  8
PATTERN_FILL
  6
CONTINUOUS
 62
     7
 10
-14.22131268674116
 20
30.11169571020247
 30
0.0
 11
-5.87131722525811
 21
21.76170024871945
 31
0.0
  0
LINE
  5
11B
  8
PATTERN_FILL
  6
CONTINUOUS
 62
     7
 10
6.209582415190596
 20
9.680800608270715
 30
0.0
 11
16.02494459975622
 21
-0.1345615762949031
 31
0.0
  0
LINE
  5
11C
  8
PATTERN_FILL
  6
CONTINUOUS
 62
     7
 10
-14.37888481827036
 20
27.46926784173166
 30
0.0
 11
-5.923558148910047
 21
19.01394117237136
 31
0.0
  0
LINE
  5
11D
  8
PATTERN_FILL
  6
CONTINUOUS
 62
     7
 10
6.290240851404633
 20
6.800142172056713
 30
0.0
 11
16.20250097122789
 21
-3.112117947766546
 31
0.0
  0
LINE
  5
11E
  8
PATTERN_FILL
  6
CONTINUOUS
 62
     7
 10
-14.53645694979957
 20
24.82683997326089
 30
0.0
 11
-6.023846408137501
 21
16.3142294315988
 31
0.0
  0
LINE
  5
11F
  8
PATTERN_FILL
  6
CONTINUOUS
 62
     7
 10
6.370899287618613
 20
3.919483735842729
 30
0.0
 11
16.3800573426995
 21
-6.08967431923816
 31
0.0
  0
LINE
  5
120
  8
PATTERN_FILL
  6
CONTINUOUS
 62
     7
 10
-14.69402908132878
 20
22.1844121047901
 30
0.0
 11
-6.100110999577169
 21
13.59049402303849
 31
0.0
  0
LINE
  5
121
  8
PATTERN_FILL
  6
CONTINUOUS
 62
     7
 10
6.451557723832593
 20
1.038825299628737
 30
0.0
 11
16.55761371417111
 21
-9.067230690709795
 31
0.0
  0
LINE
  5
122
  8
PATTERN_FILL
  6
CONTINUOUS
 62
     7
 10
-14.85160121285799
 20
19.54198423631931
 30
0.0
 11
-6.176375591016836
 21
10.86675861447817
 31
0.0
  0
LINE
  5
123
  8
PATTERN_FILL
  6
CONTINUOUS
 62
     7
 10
6.532216160046573
 20
-1.841833136585262
 30
0.0
 11
16.73517008564278
 21
-12.04478706218145
 31
0.0
  0
LINE
  5
124
  8
PATTERN_FILL
  6
CONTINUOUS
 62
     7
 10
-15.00917334438719
 20
16.89955636784853
 30
0.0
 11
-6.25264018245656
 21
8.14302320591787
 31
0.0
  0
LINE
  5
125
  8
PATTERN_FILL
  6
CONTINUOUS
 62
     7
 10
6.612874596260554
 20
-4.722491572799246
 30
0.0
 11
16.91272645711439
 21
-15.02234343365305
 31
0.0
  0
LINE
  5
126
  8
PATTERN_FILL
  6
CONTINUOUS
 62
     7
 10
-15.16674547591646
 20
14.25712849937776
 30
0.0
 11
-6.328904773896227
 21
5.419287797357558
 31
0.0
  0
LINE
  5
127
  8
PATTERN_FILL
  6
CONTINUOUS
 62
     7
 10
6.693533032474591
 20
-7.603150009013252
 30
0.0
 11
17.090282828586
 21
-17.9998998051247
 31
0.0
  0
LINE
  5
128
  8
PATTERN_FILL
  6
CONTINUOUS
 62
     7
 10
-15.32431760744566
 20
11.61470063090697
 30
0.0
 11
-6.405169365335951
 21
2.69555238879725
 31
0.0
  0
LINE
  5
129
  8
PATTERN_FILL
  6
CONTINUOUS
 62
     7
 10
6.774191468688571
 20
-10.48380844522724
 30
0.0
 11
17.26783920005767
 21
-20.97745617659632
 31
0.0
  0
LINE
  5
12A
  8
PATTERN_FILL
  6
CONTINUOUS
 62
     7
 10
-15.48188973897487
 20
8.972272762436177
 30
0.0
 11
-6.481433956775618
 21
-0.0281830197630804
 31
0.0
  0
LINE
  5
12B
  8
PATTERN_FILL
  6
CONTINUOUS
 62
     7
 10
6.854849904902551
 20
-13.36446688144123
 30
0.0
 11
17.44539557152928
 21
-23.95501254806794
 31
0.0
  0
LINE
  5
12C
  8
PATTERN_FILL
  6
CONTINUOUS
 62
     7
 10
-15.63946187050408
 20
6.329844893965404
 30
0.0
 11
-6.557698548215285
 21
-2.751918428323382
 31
0.0
  0
LINE
  5
12D
  8
PATTERN_FILL
  6
CONTINUOUS
 62
     7
 10
6.935508341116531
 20
-16.24512531765521
 30
0.0
 11
15.31805950936121
 21
-24.62767648589989
 31
0.0
  0
LINE
  5
12E
  8
PATTERN_FILL
  6
CONTINUOUS
 62
     7
 10
-15.79703400203329
 20
3.687417025494607
 30
0.0
 11
-6.633963139655009
 21
-5.475653836883691
 31
0.0
  0
LINE
  5
12F
  8
PATTERN_FILL
  6
CONTINUOUS
 62
     7
 10
7.016166777330511
 20
-19.1257837538692
 30
0.0
 11
12.36074237139121
 21
-24.47035934792988
 31
0.0
  0
LINE
  5
130
  8
PATTERN_FILL
  6
CONTINUOUS
 62
     7
 10
-15.95460613356249
 20
1.04498915702386
 30
0.0
 11
-6.710227731094676
 21
-8.199389245443978
 31
0.0
  0
LINE
  5
131
  8
PATTERN_FILL
  6
CONTINUOUS
 62
     7
 10
7.096825213544548
 20
-22.00644219008319
 30
0.0
 11
9.43837337573683
 21
-24.34799035227551
 31
0.0
  0
LINE
  5
132
  8
PATTERN_FILL
  6
CONTINUOUS
 62
     7
 10
-16.11217826509176
 20
-1.59743871144693
 30
0.0
 11
-6.7864923225344
 21
-10.92312465400428
 31
0.0
  0
LINE
  5
133
  8
PATTERN_FILL
  6
CONTINUOUS
 62
     7
 10
-16.26975039662096
 20
-4.239866579917699
 30
0.0
 11
-6.862756913974067
 21
-13.64686006256459
 31
0.0
  0
LINE
  5
134
  8
PATTERN_FILL
  6
CONTINUOUS
 62
     7
 10
-16.42732252815017
 20
-6.882294448388482
 30
0.0
 11
-6.939021505413734
 21
-16.37059547112491
 31
0.0
  0
LINE
  5
135
  8
PATTERN_FILL
  6
CONTINUOUS
 62
     7
 10
-16.58489465967938
 20
-9.524722316859272
 30
0.0
 11
-7.015286096853458
 21
-19.09433087968521
 31
0.0
  0
LINE
  5
136
  8
PATTERN_FILL
  6
CONTINUOUS
 62
     7
 10
-16.74246679120859
 20
-12.16715018533005
 30
0.0
 11
-7.091550688293125
 21
-21.81806628824554
 31
0.0
  0
LINE
  5
137
  8
PATTERN_FILL
  6
CONTINUOUS
 62
     7
 10
-16.90003892273785
 20
-14.80957805380084
 30
0.0
 11
-7.426770466785626
 21
-24.282846509753
 31
0.0
  0
LINE
  5
138
  8
PATTERN_FILL
  6
CONTINUOUS
 62
     7
 10
-17.05761105426706
 20
-17.45200592227163
 30
0.0
 11
-10.13542331067066
 21
-24.37419366586798
 31
0.0
  0
LINE
  5
139
  8
PATTERN_FILL
  6
CONTINUOUS
 62
     7
 10
-17.21518318579626
 20
-20.09443379074241
 30
0.0
 11
-12.81717675879401
 21
-24.49244021774463
 31
0.0
  0
LINE
  5
13A
  8
PATTERN_FILL
  6
CONTINUOUS
 62
     7
 10
-17.37275531732547
 20
-22.7368616592132
 30
0.0
 11
-15.47278158350156
 21
-24.63683539303708
 31
0.0
  0
LINE
  5
13B
  8
PATTERN_FILL
  6
CONTINUOUS
 62
     7
 10
-86.30000000000007
 20
65.95625914460298
 30
0.0
 11
-84.46542692468336
 21
64.12168606928627
 31
0.0
  0
LINE
  5
13C
  8
PATTERN_FILL
  6
CONTINUOUS
 62
     7
 10
-86.30000000000007
 20
68.75625914460299
 30
0.0
 11
-81.46907098101406
 21
63.92533012561698
 31
0.0
  0
LINE
  5
13D
  8
PATTERN_FILL
  6
CONTINUOUS
 62
     7
 10
-86.30000000000007
 20
71.556259144603
 30
0.0
 11
-78.50311341930649
 21
63.75937256390948
 31
0.0
  0
LINE
  5
13E
  8
PATTERN_FILL
  6
CONTINUOUS
 62
     7
 10
-86.30000000000007
 20
74.35625914460299
 30
0.0
 11
-75.56660110650438
 21
63.62286025110733
 31
0.0
  0
LINE
  5
13F
  8
PATTERN_FILL
  6
CONTINUOUS
 62
     7
 10
-84.64374085539708
 20
75.50000000000001
 30
0.0
 11
-72.65863718157152
 21
63.51489632617445
 31
0.0
  0
LINE
  5
140
  8
PATTERN_FILL
  6
CONTINUOUS
 62
     7
 10
-81.84374085539707
 20
75.49999999999999
 30
0.0
 11
-69.77837652314304
 21
63.43463566774589
 31
0.0
  0
LINE
  5
141
  8
PATTERN_FILL
  6
CONTINUOUS
 62
     7
 10
-79.04374085539712
 20
75.49999999999999
 30
0.0
 11
-66.92502167863404
 21
63.38128082323688
 31
0.0
  0
LINE
  5
142
  8
PATTERN_FILL
  6
CONTINUOUS
 62
     7
 10
-76.24374085539705
 20
75.49999999999999
 30
0.0
 11
-64.09781919856687
 21
63.35407834316972
 31
0.0
  0
LINE
  5
143
  8
PATTERN_FILL
  6
CONTINUOUS
 62
     7
 10
-86.30000000000007
 20
88.35625914460293
 30
0.0
 11
-84.74374085539716
 21
86.80000000000003
 31
0.0
  0
LINE
  5
144
  8
PATTERN_FILL
  6
CONTINUOUS
 62
     7
 10
-73.4437408553971
 20
75.49999999999999
 30
0.0
 11
-61.29605632780499
 21
63.3523154724078
 31
0.0
  0
LINE
  5
145
  8
PATTERN_FILL
  6
CONTINUOUS
 62
     7
 10
-86.30000000000007
 20
91.15625914460291
 30
0.0
 11
-81.9437408553971
 21
86.8
 31
0.0
  0
LINE
  5
146
  8
PATTERN_FILL
  6
CONTINUOUS
 62
     7
 10
-70.64374085539714
 20
75.49999999999999
 30
0.0
 11
-58.51905801205822
 21
63.37531715666107
 31
0.0
  0
LINE
  5
147
  8
PATTERN_FILL
  6
CONTINUOUS
 62
     7
 10
-86.30000000000007
 20
93.95625914460292
 30
0.0
 11
-79.14374085539714
 21
86.8
 31
0.0
  0
LINE
  5
148
  8
PATTERN_FILL
  6
CONTINUOUS
 62
     7
 10
-67.84374085539713
 20
75.49999999999999
 30
0.0
 11
-55.766184183647
 21
63.42244332824986
 31
0.0
  0
LINE
  5
149
  8
PATTERN_FILL
  6
CONTINUOUS
 62
     7
 10
-86.26555953041822
 20
96.72181867502111
 30
0.0
 11
-76.34374085539707
 21
86.79999999999997
 31
0.0
  0
LINE
  5
14A
  8
PATTERN_FILL
  6
CONTINUOUS
 62
     7
 10
-65.04374085539712
 20
75.49999999999999
 30
0.0
 11
-53.03682729528316
 21
63.49308643988603
 31
0.0
  0
LINE
  5
14B
  8
PATTERN_FILL
  6
CONTINUOUS
 62
     7
 10
-84.87552429898619
 20
98.1317834435891
 30
0.0
 11
-73.54374085539712
 21
86.8
 31
0.0
  0
LINE
  5
14C
  8
PATTERN_FILL
  6
CONTINUOUS
 62
     7
 10
-62.24374085539711
 20
75.49999999999999
 30
0.0
 11
-50.33041007467818
 21
63.58666921928101
 31
0.0
  0
LINE
  5
14D
  8
PATTERN_FILL
  6
CONTINUOUS
 62
     7
 10
-82.26882554761141
 20
98.32508469221433
 30
0.0
 11
-70.74374085539716
 21
86.8
 31
0.0
  0
LINE
  5
14E
  8
PATTERN_FILL
  6
CONTINUOUS
 62
     7
 10
-59.44374085539715
 20
75.49999999999999
 30
0.0
 11
-47.64638347624827
 21
63.70264262085108
 31
0.0
  0
LINE
  5
14F
  8
PATTERN_FILL
  6
CONTINUOUS
 62
     7
 10
-79.624918752454
 20
98.4811778970569
 30
0.0
 11
-67.9437408553971
 21
86.8
 31
0.0
  0
LINE
  5
150
  8
PATTERN_FILL
  6
CONTINUOUS
 62
     7
 10
-56.64374085539714
 20
75.49999999999999
 30
0.0
 11
-44.984224809144
 21
63.84048395374684
 31
0.0
  0
LINE
  5
151
  8
PATTERN_FILL
  6
CONTINUOUS
 62
     7
 10
-76.95957018453635
 20
98.61582932913929
 30
0.0
 11
-65.14374085539714
 21
86.8
 31
0.0
  0
LINE
  5
152
  8
PATTERN_FILL
  6
CONTINUOUS
 62
     7
 10
-53.84374085539707
 20
75.49999999999999
 30
0.0
 11
-42.3434360233764
 21
63.99969516797931
 31
0.0
  0
LINE
  5
153
  8
PATTERN_FILL
  6
CONTINUOUS
 62
     7
 10
-74.27227826555622
 20
98.72853741015912
 30
0.0
 11
-62.34374085539713
 21
86.79999999999997
 31
0.0
  0
LINE
  5
154
  8
PATTERN_FILL
  6
CONTINUOUS
 62
     7
 10
-51.04374085539712
 20
75.49999999999999
 30
0.0
 11
-39.80989521374954
 21
64.26615435835238
 31
0.0
  0
LINE
  5
155
  8
PATTERN_FILL
  6
CONTINUOUS
 62
     7
 10
-71.56251653313495
 20
98.8187756777378
 30
0.0
 11
-59.54374085539717
 21
86.8
 31
0.0
  0
LINE
  5
156
  8
PATTERN_FILL
  6
CONTINUOUS
 62
     7
 10
-48.24374085539716
 20
75.49999999999999
 30
0.0
 11
-38.70000000000005
 21
65.95625914460281
 31
0.0
  0
LINE
  5
157
  8
PATTERN_FILL
  6
CONTINUOUS
 62
     7
 10
-68.82973190470818
 20
98.88599104931107
 30
0.0
 11
-56.74374085539716
 21
86.8
 31
0.0
  0
LINE
  5
158
  8
PATTERN_FILL
  6
CONTINUOUS
 62
     7
 10
-45.44374085539715
 20
75.49999999999999
 30
0.0
 11
-38.70000000000005
 21
68.75625914460288
 31
0.0
  0
LINE
  5
159
  8
PATTERN_FILL
  6
CONTINUOUS
 62
     7
 10
-66.07334278077985
 20
98.92960192538276
 30
0.0
 11
-53.94374085539715
 21
86.8
 31
0.0
  0
LINE
  5
15A
  8
PATTERN_FILL
  6
CONTINUOUS
 62
     7
 10
-42.64374085539714
 20
75.49999999999999
 30
0.0
 11
-38.70000000000005
 21
71.55625914460286
 31
0.0
  0
LINE
  5
15B
  8
PATTERN_FILL
  6
CONTINUOUS
 62
     7
 10
-63.29273696895979
 20
98.94899611356267
 30
0.0
 11
-51.14374085539714
 21
86.8
 31
0.0
  0
LINE
  5
15C
  8
PATTERN_FILL
  6
CONTINUOUS
 62
     7
 10
-39.84374085539719
 20
75.49999999999999
 30
0.0
 11
-38.70000000000005
 21
74.35625914460284
 31
0.0
  0
LINE
  5
15D
  8
PATTERN_FILL
  6
CONTINUOUS
 62
     7
 10
-60.48726940760616
 20
98.94352855220895
 30
0.0
 11
-48.34374085539719
 21
86.8
 31
0.0
  0
LINE
  5
15E
  8
PATTERN_FILL
  6
CONTINUOUS
 62
     7
 10
-57.6562596648638
 20
98.91251880946662
 30
0.0
 11
-45.54374085539717
 21
86.8
 31
0.0
  0
LINE
  5
15F
  8
PATTERN_FILL
  6
CONTINUOUS
 62
     7
 10
-54.79898918535525
 20
98.85524832995803
 30
0.0
 11
-42.74374085539722
 21
86.8
 31
0.0
  0
LINE
  5
160
  8
PATTERN_FILL
  6
CONTINUOUS
 62
     7
 10
-51.91469825262305
 20
98.77095739722581
 30
0.0
 11
-39.94374085539721
 21
86.8
 31
0.0
  0
LINE
  5
161
  8
PATTERN_FILL
  6
CONTINUOUS
 62
     7
 10
-49.00258263054553
 20
98.6588417751483
 30
0.0
 11
-38.70000000000005
 21
88.35625914460279
 31
0.0
  0
LINE
  5
162
  8
PATTERN_FILL
  6
CONTINUOUS
 62
     7
 10
-46.06178984117281
 20
98.5180489857756
 30
0.0
 11
-38.70000000000005
 21
91.15625914460283
 31
0.0
  0
LINE
  5
163
  8
PATTERN_FILL
  6
CONTINUOUS
 62
     7
 10
-43.0914150295921
 20
98.34767417419489
 30
0.0
 11
-38.70000000000005
 21
93.95625914460281
 31
0.0
  0
LINE
  5
164
  8
PATTERN_FILL
  6
CONTINUOUS
 62
     7
 10
-40.06070283887402
 20
98.11696198347677
 30
0.0
 11
-38.7544290320277
 21
96.81068817663045
 31
0.0
  0
LINE
  5
165
  8
PATTERN_FILL
  6
CONTINUOUS
 62
     7
 10
-86.30000000000007
 20
95.52826086956502
 30
0.0
 11
-83.58956383207573
 21
98.23869703748933
 31
0.0
  0
LINE
  5
166
  8
PATTERN_FILL
  6
CONTINUOUS
 62
     7
 10
-86.30000000000007
 20
92.728260869565
 30
0.0
 11
-80.60216307654991
 21
98.4260977930151
 31
0.0
  0
LINE
  5
167
  8
PATTERN_FILL
  6
CONTINUOUS
 62
     7
 10
-86.30000000000007
 20
89.92826086956502
 30
0.0
 11
-77.6448770152611
 21
98.58338385430396
 31
0.0
  0
LINE
  5
168
  8
PATTERN_FILL
  6
CONTINUOUS
 62
     7
 10
-86.30000000000007
 20
87.12826086956501
 30
0.0
 11
-74.71676940139673
 21
98.71149146816829
 31
0.0
  0
LINE
  5
169
  8
PATTERN_FILL
  6
CONTINUOUS
 62
     7
 10
-83.8282608695651
 20
86.8
 30
0.0
 11
-71.81695888885781
 21
98.81130198070728
 31
0.0
  0
LINE
  5
16A
  8
PATTERN_FILL
  6
CONTINUOUS
 62
     7
 10
-81.02826086956509
 20
86.80000000000003
 30
0.0
 11
-68.94461464063409
 21
98.88364622893103
 31
0.0
  0
LINE
  5
16B
  8
PATTERN_FILL
  6
CONTINUOUS
 62
     7
 10
-78.22826086956513
 20
86.8
 30
0.0
 11
-66.09895238135744
 21
98.9293084882077
 31
0.0
  0
LINE
  5
16C
  8
PATTERN_FILL
  6
CONTINUOUS
 62
     7
 10
-75.42826086956512
 20
86.8
 30
0.0
 11
-63.27923084024127
 21
98.94903002932388
 31
0.0
  0
LINE
  5
16D
  8
PATTERN_FILL
  6
CONTINUOUS
 62
     7
 10
-86.30000000000007
 20
73.12826086956507
 30
0.0
 11
-83.92826086956518
 21
75.49999999999996
 31
0.0
  0
LINE
  5
16E
  8
PATTERN_FILL
  6
CONTINUOUS
 62
     7
 10
-72.62826086956511
 20
86.80000000000003
 30
0.0
 11
-60.48474853816629
 21
98.9435123313989
 31
0.0
  0
LINE
  5
16F
  8
PATTERN_FILL
  6
CONTINUOUS
 62
     7
 10
-86.30000000000007
 20
70.32826086956506
 30
0.0
 11
-81.12826086956511
 21
75.49999999999999
 31
0.0
  0
LINE
  5
170
  8
PATTERN_FILL
  6
CONTINUOUS
 62
     7
 10
-69.82826086956516
 20
86.8
 30
0.0
 11
-57.71484087900649
 21
98.91341999055864
 31
0.0
  0
LINE
  5
171
  8
PATTERN_FILL
  6
CONTINUOUS
 62
     7
 10
-86.30000000000007
 20
67.52826086956507
 30
0.0
 11
-78.3282608695651
 21
75.50000000000001
 31
0.0
  0
LINE
  5
172
  8
PATTERN_FILL
  6
CONTINUOUS
 62
     7
 10
-67.0282608695652
 20
86.8
 30
0.0
 11
-54.96887751065958
 21
98.85938335890559
 31
0.0
  0
LINE
  5
173
  8
PATTERN_FILL
  6
CONTINUOUS
 62
     7
 10
-86.03679983238862
 20
64.99146103717648
 30
0.0
 11
-75.52826086956514
 21
75.49999999999999
 31
0.0
  0
LINE
  5
174
  8
PATTERN_FILL
  6
CONTINUOUS
 62
     7
 10
-64.22826086956513
 20
86.8
 30
0.0
 11
-52.24625992578331
 21
98.78200094378185
 31
0.0
  0
LINE
  5
175
  8
PATTERN_FILL
  6
CONTINUOUS
 62
     7
 10
-84.12999177855409
 20
64.098269091011
 30
0.0
 11
-72.72826086956513
 21
75.49999999999999
 31
0.0
  0
LINE
  5
176
  8
PATTERN_FILL
  6
CONTINUOUS
 62
     7
 10
-61.42826086956512
 20
86.80000000000003
 30
0.0
 11
-49.54641927611664
 21
98.68184159344854
 31
0.0
  0
LINE
  5
177
  8
PATTERN_FILL
  6
CONTINUOUS
 62
     7
 10
-81.50099105863092
 20
63.92726981093422
 30
0.0
 11
-69.92826086956518
 21
75.49999999999999
 31
0.0
  0
LINE
  5
178
  8
PATTERN_FILL
  6
CONTINUOUS
 62
     7
 10
-58.62826086956517
 20
86.80000000000003
 30
0.0
 11
-46.86881437756165
 21
98.55944649200354
 31
0.0
  0
LINE
  5
179
  8
PATTERN_FILL
  6
CONTINUOUS
 62
     7
 10
-78.85088987032776
 20
63.77737099923736
 30
0.0
 11
-67.12826086956517
 21
75.49999999999999
 31
0.0
  0
LINE
  5
17A
  8
PATTERN_FILL
  6
CONTINUOUS
 62
     7
 10
-55.82826086956516
 20
86.8
 30
0.0
 11
-44.21292988603523
 21
98.41533098352996
 31
0.0
  0
LINE
  5
17B
  8
PATTERN_FILL
  6
CONTINUOUS
 62
     7
 10
-76.17920330029887
 20
63.64905756926625
 30
0.0
 11
-64.32826086956516
 21
75.49999999999999
 31
0.0
  0
LINE
  5
17C
  8
PATTERN_FILL
  6
CONTINUOUS
 62
     7
 10
-53.02826086956514
 20
86.80000000000003
 30
0.0
 11
-41.57827462653432
 21
98.24998624303085
 31
0.0
  0
LINE
  5
17D
  8
PATTERN_FILL
  6
CONTINUOUS
 62
     7
 10
-73.48542269334519
 20
63.54283817621995
 30
0.0
 11
-61.52826086956514
 21
75.49999999999999
 31
0.0
  0
LINE
  5
17E
  8
PATTERN_FILL
  6
CONTINUOUS
 62
     7
 10
-50.22826086956513
 20
86.8
 30
0.0
 11
-39.30806176837763
 21
97.72019910118753
 31
0.0
  0
LINE
  5
17F
  8
PATTERN_FILL
  6
CONTINUOUS
 62
     7
 10
-47.42826086956518
 20
86.8
 30
0.0
 11
-38.70000000000005
 21
95.52826086956516
 31
0.0
  0
LINE
  5
180
  8
PATTERN_FILL
  6
CONTINUOUS
 62
     7
 10
-68.02941609612105
 20
63.39884477344405
 30
0.0
 11
-55.92826086956512
 21
75.49999999999999
 31
0.0
  0
LINE
  5
181
  8
PATTERN_FILL
  6
CONTINUOUS
 62
     7
 10
-44.62826086956517
 20
86.79999999999997
 30
0.0
 11
-38.70000000000005
 21
92.72826086956512
 31
0.0
  0
LINE
  5
182
  8
PATTERN_FILL
  6
CONTINUOUS
 62
     7
 10
-65.26603863456364
 20
63.36222223500151
 30
0.0
 11
-53.12826086956517
 21
75.50000000000001
 31
0.0
  0
LINE
  5
183
  8
PATTERN_FILL
  6
CONTINUOUS
 62
     7
 10
-41.82826086956516
 20
86.8
 30
0.0
 11
-38.70000000000005
 21
89.92826086956514
 31
0.0
  0
LINE
  5
184
  8
PATTERN_FILL
  6
CONTINUOUS
 62
     7
 10
-62.47826011457687
 20
63.35000075498824
 30
0.0
 11
-50.32826086956516
 21
75.49999999999999
 31
0.0
  0
LINE
  5
185
  8
PATTERN_FILL
  6
CONTINUOUS
 62
     7
 10
-39.0282608695652
 20
86.8
 30
0.0
 11
-38.70000000000005
 21
87.12826086956512
 31
0.0
  0
LINE
  5
186
  8
PATTERN_FILL
  6
CONTINUOUS
 62
     7
 10
-59.66542544197205
 20
63.36283542759305
 30
0.0
 11
-47.5282608695652
 21
75.49999999999999
 31
0.0
  0
LINE
  5
187
  8
PATTERN_FILL
  6
CONTINUOUS
 62
     7
 10
-56.82684337784315
 20
63.40141749172206
 30
0.0
 11
-44.72826086956525
 21
75.50000000000001
 31
0.0
  0
LINE
  5
188
  8
PATTERN_FILL
  6
CONTINUOUS
 62
     7
 10
-53.96178370596556
 20
63.46647716359966
 30
0.0
 11
-41.92826086956524
 21
75.49999999999999
 31
0.0
  0
LINE
  5
189
  8
PATTERN_FILL
  6
CONTINUOUS
 62
     7
 10
-51.06947410577726
 20
63.55878676378795
 30
0.0
 11
-39.12826086956522
 21
75.49999999999999
 31
0.0
  0
LINE
  5
18A
  8
PATTERN_FILL
  6
CONTINUOUS
 62
     7
 10
-48.1490966925773
 20
63.67916417698792
 30
0.0
 11
-38.70000000000005
 21
73.12826086956521
 31
0.0
  0
LINE
  5
18B
  8
PATTERN_FILL
  6
CONTINUOUS
 62
     7
 10
-45.19978418051954
 20
63.82847668904567
 30
0.0
 11
-38.70000000000005
 21
70.3282608695652
 31
0.0
  0
LINE
  5
18C
  8
PATTERN_FILL
  6
CONTINUOUS
 62
     7
 10
-42.22061561678447
 20
64.00764525278073
 30
0.0
 11
-38.70000000000005
 21
67.52826086956519
 31
0.0
  0
LINE
  5
18D
  8
PATTERN_FILL
  6
CONTINUOUS
 62
     7
 10
-70.76901402014119
 20
63.45924684942399
 30
0.0
 11
-58.72826086956513
 21
75.49999999999999
 31
0.0
  0
LINE
  5
18E
  8
PATTERN_FILL
  6
CONTINUOUS
 62
     7
 10
40.58400000000006
 20
20.23902972222228
 30
0.0
 11
85.82353958623662
 21
-25.00050986401437
 31
0.0
  0
LINE
  5
18F
  8
SPEC
  6
CONTINUOUS
 62
     7
 10
-164.9999999999999
 20
243.5318150000001
 30
0.0
 11
137.5
 21
243.5318150000001
 31
0.0
  0
LINE
  5
190
  8
SPEC
  6
CONTINUOUS
 62
     7
 10
-164.9999999999999
 20
236.0318150000001
 30
0.0
 11
137.5
 21
236.0318150000001
 31
0.0
  0
LINE
  5
191
  8
SPEC
  6
CONTINUOUS
 62
     7
 10
-164.9999999999999
 20
243.5318150000001
 30
0.0
 11
-164.9999999999999
 21
131.031815
 31
0.0
  0
TEXT
  5
192
  8
SPEC
 62
     7
 10
-162.4999999999999
 20
246.318355
 30
0.0
 40
4.8865234375
  1
仕様
 41
0.7
 11
-162.4999999999999
 21
251.2048784375
 31
0.0
 73
     3
  0
LINE
  5
193
  8
SPEC
  6
CONTINUOUS
 62
     7
 10
-100.0
 20
243.5318150000001
 30
0.0
 11
-100.0
 21
131.031815
 31
0.0
  0
LINE
  5
194
  8
SPEC
  6
CONTINUOUS
 62
     7
 10
137.5
 20
243.5318150000001
 30
0.0
 11
137.5
 21
131.031815
 31
0.0
  0
TEXT
  5
195
  8
SPEC
 62
     7
 10
-163.2
 20
155.1076505555556
 30
0.0
 40
3.800629340277778
  1
寸法(W×H×D)
 41
0.7
 11
-163.2
 21
158.9082798958333
 31
0.0
 73
     3
  0
TEXT
  5
196
  8
SPEC
 62
     7
 10
-163.2
 20
147.6076505555556
 30
0.0
 40
3.800629340277778
  1
質量
 41
0.7
 11
-163.2
 21
151.4082798958333
 31
0.0
 73
     3
  0
TEXT
  5
197
  8
SPEC
 62
     7
 10
-98.19999999999999
 20
155.1076505555556
 30
0.0
 40
3.800629340277778
  1
50×160×38mm
 41
0.7
 11
-98.19999999999999
 21
158.9082798958333
 31
0.0
 73
     3
  0
TEXT
  5
198
  8
SPEC
 62
     7
 10
-98.19999999999999
 20
147.6076505555556
 30
0.0
 40
3.800629340277778
  1
306g
 41
0.7
 11
-98.19999999999999
 21
151.4082798958333
 31
0.0
 73
     3
  0
LINE
  5
199
  8
SPEC
  6
CONTINUOUS
 62
     7
 10
-164.9999999999999
 20
228.531815
 30
0.0
 11
137.5
 21
228.531815
 31
0.0
  0
LINE
  5
19A
  8
SPEC
  6
CONTINUOUS
 62
     7
 10
-164.9999999999999
 20
221.031815
 30
0.0
 11
137.5
 21
221.031815
 31
0.0
  0
LINE
  5
19B
  8
SPEC
  6
CONTINUOUS
 62
     7
 10
-164.9999999999999
 20
213.531815
 30
0.0
 11
137.5
 21
213.531815
 31
0.0
  0
LINE
  5
19C
  8
SPEC
  6
CONTINUOUS
 62
     7
 10
-164.9999999999999
 20
206.031815
 30
0.0
 11
137.5
 21
206.031815
 31
0.0
  0
LINE
  5
19D
  8
SPEC
  6
CONTINUOUS
 62
     7
 10
-164.9999999999999
 20
198.531815
 30
0.0
 11
137.5
 21
198.531815
 31
0.0
  0
LINE
  5
19E
  8
SPEC
  6
CONTINUOUS
 62
     7
 10
-164.9999999999999
 20
191.031815
 30
0.0
 11
137.5
 21
191.031815
 31
0.0
  0
LINE
  5
19F
  8
SPEC
  6
CONTINUOUS
 62
     7
 10
-164.9999999999999
 20
183.531815
 30
0.0
 11
137.5
 21
183.531815
 31
0.0
  0
LINE
  5
1A0
  8
SPEC
  6
CONTINUOUS
 62
     7
 10
-164.9999999999999
 20
176.031815
 30
0.0
 11
137.5
 21
176.031815
 31
0.0
  0
LINE
  5
1A1
  8
SPEC
  6
CONTINUOUS
 62
     7
 10
-164.9999999999999
 20
168.531815
 30
0.0
 11
137.5
 21
168.531815
 31
0.0
  0
LINE
  5
1A2
  8
SPEC
  6
CONTINUOUS
 62
     7
 10
-164.9999999999999
 20
161.031815
 30
0.0
 11
137.5
 21
161.031815
 31
0.0
  0
LINE
  5
1A3
  8
SPEC
  6
CONTINUOUS
 62
     7
 10
-164.9999999999999
 20
153.531815
 30
0.0
 11
137.5
 21
153.531815
 31
0.0
  0
LINE
  5
1A4
  8
SPEC
  6
CONTINUOUS
 62
     7
 10
-164.9999999999999
 20
146.031815
 30
0.0
 11
137.5
 21
146.031815
 31
0.0
  0
TEXT
  5
1A5
  8
SPEC
 62
     7
 10
-98.19999999999999
 20
237.6076505555556
 30
0.0
 40
3.800629340277778
  1
コンデンサー型
 41
0.7
 11
-98.19999999999999
 21
241.4082798958334
 31
0.0
 73
     3
  0
TEXT
  5
1A6
  8
SPEC
 62
     7
 10
-98.19999999999999
 20
230.1076505555556
 30
0.0
 40
3.800629340277778
  1
無指向性/ワイドカーディオイド/カーディオイド/ハイパーカーディオイド/双指向性と各々の間の9段階
 41
0.7
 11
-98.19999999999999
 21
233.9082798958334
 31
0.0
 73
     3
  0
TEXT
  5
1A7
  8
SPEC
 62
     7
 10
-98.19999999999999
 20
222.6076505555556
 30
0.0
 40
3.800629340277778
  1
20Hz～20kHz
 41
0.7
 11
-98.19999999999999
 21
226.4082798958334
 31
0.0
 73
     3
  0
TEXT
  5
1A8
  8
SPEC
 62
     7
 10
-98.19999999999999
 20
215.1076505555556
 30
0.0
 40
3.800629340277778
  1
-33dB re 1V/Pa(±0.5dB)
 41
0.7
 11
-98.19999999999999
 21
218.9082798958333
 31
0.0
 73
     3
  0
TEXT
  5
1A9
  8
SPEC
 62
     7
 10
-98.19999999999999
 20
207.6076505555556
 30
0.0
 40
3.800629340277778
  1
140dB SPL(パッドOFF、THD 0.5%%%)
 41
0.7
 11
-98.19999999999999
 21
211.4082798958333
 31
0.0
 73
     3
  0
TEXT
  5
1AA
  8
SPEC
 62
     7
 10
-98.19999999999999
 20
192.6076505555556
 30
0.0
 40
3.800629340277778
  1
0/6/12/18dB
 41
0.7
 11
-98.19999999999999
 21
196.4082798958333
 31
0.0
 73
     3
  0
TEXT
  5
1AB
  8
SPEC
 62
     7
 10
-98.19999999999999
 20
200.1076505555556
 30
0.0
 40
3.800629340277778
  1
6dB SPL(Aウェイト)
 41
0.7
 11
-98.19999999999999
 21
203.9082798958333
 31
0.0
 73
     3
  0
TEXT
  5
1AC
  8
SPEC
 62
     7
 10
-98.19999999999999
 20
185.1076505555556
 30
0.0
 40
3.800629340277778
  1
Flat/40Hz(12dB/oct)/80Hz(12dB/oct)/160Hz(6dB/oct)
 41
0.7
 11
-98.19999999999999
 21
188.9082798958333
 31
0.0
 73
     3
  0
TEXT
  5
1AD
  8
SPEC
 62
     7
 10
-98.19999999999999
 20
177.6076505555556
 30
0.0
 40
3.800629340277778
  1
200Ω以下
 41
0.7
 11
-98.19999999999999
 21
181.4082798958333
 31
0.0
 73
     3
  0
TEXT
  5
1AE
  8
SPEC
 62
     7
 10
-98.19999999999999
 20
170.1076505555556
 30
0.0
 40
3.800629340277778
  1
ファンタム DC48V/約4.5mA
 41
0.7
 11
-98.19999999999999
 21
173.9082798958333
 31
0.0
 73
     3
  0
TEXT
  5
1AF
  8
SPEC
 62
     7
 10
-98.19999999999993
 20
162.6076505555556
 30
0.0
 40
3.800629340277778
  1
XLR(3P)
 41
0.7
 11
-98.19999999999993
 21
166.4082798958333
 31
0.0
 73
     3
  0
TEXT
  5
1B0
  8
SPEC
 62
     7
 10
-163.2
 20
237.6076505555556
 30
0.0
 40
3.800629340277778
  1
形式
 41
0.7
 11
-163.2
 21
241.4082798958334
 31
0.0
 73
     3
  0
TEXT
  5
1B1
  8
SPEC
 62
     7
 10
-163.2
 20
230.1076505555556
 30
0.0
 40
3.800629340277778
  1
指向特性
 41
0.7
 11
-163.2
 21
233.9082798958334
 31
0.0
 73
     3
  0
TEXT
  5
1B2
  8
SPEC
 62
     7
 10
-163.2
 20
222.6076505555556
 30
0.0
 40
3.800629340277778
  1
周波数特性
 41
0.7
 11
-163.2
 21
226.4082798958334
 31
0.0
 73
     3
  0
TEXT
  5
1B3
  8
SPEC
 62
     7
 10
-163.2
 20
215.1076505555556
 30
0.0
 40
3.800629340277778
  1
開回路感度
 41
0.7
 11
-163.2
 21
218.9082798958333
 31
0.0
 73
     3
  0
TEXT
  5
1B4
  8
SPEC
 62
     7
 10
-163.2
 20
207.6076505555556
 30
0.0
 40
3.800629340277778
  1
最大音圧レベル
 41
0.7
 11
-163.2
 21
211.4082798958333
 31
0.0
 73
     3
  0
TEXT
  5
1B5
  8
SPEC
 62
     7
 10
-163.2
 20
192.6076505555556
 30
0.0
 40
3.800629340277778
  1
パッド
 41
0.7
 11
-163.2
 21
196.4082798958333
 31
0.0
 73
     3
  0
TEXT
  5
1B6
  8
SPEC
 62
     7
 10
-163.2
 20
200.1076505555556
 30
0.0
 40
3.800629340277778
  1
等価雑音レベル
 41
0.7
 11
-163.2
 21
203.9082798958333
 31
0.0
 73
     3
  0
TEXT
  5
1B7
  8
SPEC
 62
     7
 10
-163.2
 20
185.1076505555556
 30
0.0
 40
3.800629340277778
  1
ローカットフィルター
 41
0.7
 11
-163.2
 21
188.9082798958333
 31
0.0
 73
     3
  0
TEXT
  5
1B8
  8
SPEC
 62
     7
 10
-163.2
 20
177.6076505555556
 30
0.0
 40
3.800629340277778
  1
インピーダンス
 41
0.7
 11
-163.2
 21
181.4082798958333
 31
0.0
 73
     3
  0
TEXT
  5
1B9
  8
SPEC
 62
     7
 10
-163.2
 20
170.1076505555556
 30
0.0
 40
3.800629340277778
  1
電源
 41
0.7
 11
-163.2
 21
173.9082798958333
 31
0.0
 73
     3
  0
TEXT
  5
1BA
  8
SPEC
 62
     7
 10
-163.2
 20
162.6076505555556
 30
0.0
 40
3.800629340277778
  1
端子
 41
0.7
 11
-163.2
 21
166.4082798958333
 31
0.0
 73
     3
  0
TEXT
  5
1BB
  8
SPEC
 62
     7
 10
-163.2
 20
140.1076505555556
 30
0.0
 40
3.800629340277778
  1
付属品
 41
0.7
 11
-163.2
 21
143.9082798958333
 31
0.0
 73
     3
  0
LINE
  5
1BC
  8
SPEC
  6
CONTINUOUS
 62
     7
 10
-164.9999999999999
 20
131.031815
 30
0.0
 11
137.5
 21
131.031815
 31
0.0
  0
TEXT
  5
1BD
  8
SPEC
 62
     7
 10
-98.19999999999999
 20
140.1076505555556
 30
0.0
 40
3.800629340277778
  1
ショックマウント(H85)、ウインドスクリーン(W414)、ポップスクリーン(PF80)、特性データシート、
 41
0.7
 11
-98.19999999999999
 21
143.9082798958333
 31
0.0
 73
     3
  0
TEXT
  5
1BE
  8
SPEC
 62
     7
 10
-98.19999999999999
 20
132.6076505555556
 30
0.0
 40
3.800629340277778
  1
布製ポーチ、キャリングハードケース
 41
0.7
 11
-98.19999999999999
 21
136.4082798958333
 31
0.0
 73
     3
  0
TEXT
  5
1BF
  8
DIMNSIONS
 62
     7
 10
-39.99999999999999
 20
-231.9292049999999
 30
0.0
 40
4.8865234375
  1
(単位：mm)
 41
0.7
 11
-39.99999999999999
 21
-227.0426815624999
 31
0.0
 73
     3
  0
LINE
  5
1C0
  8
DIMNSIONS
  6
CONTINUOUS
 62
     7
 10
-76.40000000000006
 20
-124.9769702777778
 30
0.0
 11
-108.25
 21
-124.9769702777778
 31
0.0
  0
LINE
  5
1C1
  8
DIMNSIONS
  6
CONTINUOUS
 62
     7
 10
-65.07532240073883
 20
35.02296934835931
 30
0.0
 11
-108.25
 21
35.02296934835931
 31
0.0
  0
LINE
  5
1C2
  8
DIMNSIONS
  6
CONTINUOUS
 62
     7
 10
-106.25
 20
-124.9769702777778
 30
0.0
 11
-106.25
 21
35.02296934835931
 31
0.0
  0
LINE
  5
1C3
  8
DIMNSIONS
  6
CONTINUOUS
 62
     7
 10
-106.25
 20
-124.9769702777778
 30
0.0
 11
-107.3217313524412
 21
-120.9772144184028
 31
0.0
  0
LINE
  5
1C4
  8
DIMNSIONS
  6
CONTINUOUS
 62
     7
 10
-106.25
 20
-124.9769702777778
 30
0.0
 11
-105.1782686475588
 21
-120.9772144184028
 31
0.0
  0
LINE
  5
1C5
  8
DIMNSIONS
  6
CONTINUOUS
 62
     7
 10
-106.25
 20
35.02296934835931
 30
0.0
 11
-105.1782686475588
 21
31.02321348898431
 31
0.0
  0
LINE
  5
1C6
  8
DIMNSIONS
  6
CONTINUOUS
 62
     7
 10
-106.25
 20
35.02296934835931
 30
0.0
 11
-107.3217313524412
 21
31.02321348898431
 31
0.0
  0
TEXT
  5
1C7
  8
DIMNSIONS
 62
     7
 10
-108.2377777777778
 20
-55.26866524469266
 30
0.0
 40
5.429470486111112
  1
160
 50
90.0
 41
0.7
 11
-113.6672482638889
 21
-55.26866524469266
 31
0.0
 73
     3
  0
LINE
  5
1C8
  8
DIMNSIONS
  6
CONTINUOUS
 62
     7
 10
-87.50000000000006
 20
-27.27070913814773
 30
0.0
 11
-87.50000000000006
 21
-151.9769702777778
 31
0.0
  0
LINE
  5
1C9
  8
DIMNSIONS
  6
CONTINUOUS
 62
     7
 10
-37.50442754748462
 20
-27.27070913814773
 30
0.0
 11
-37.50442754748462
 21
-151.9769702777778
 31
0.0
  0
LINE
  5
1CA
  8
DIMNSIONS
  6
CONTINUOUS
 62
     7
 10
-87.50000000000006
 20
-149.9769702777778
 30
0.0
 11
-37.50442754748462
 21
-149.9769702777778
 31
0.0
  0
LINE
  5
1CB
  8
DIMNSIONS
  6
CONTINUOUS
 62
     7
 10
-87.50000000000006
 20
-149.9769702777778
 30
0.0
 11
-83.50024414062506
 21
-148.9052389253366
 31
0.0
  0
LINE
  5
1CC
  8
DIMNSIONS
  6
CONTINUOUS
 62
     7
 10
-87.50000000000006
 20
-149.9769702777778
 30
0.0
 11
-83.50024414062506
 21
-151.0487016302189
 31
0.0
  0
LINE
  5
1CD
  8
DIMNSIONS
  6
CONTINUOUS
 62
     7
 10
-37.50442754748462
 20
-149.9769702777778
 30
0.0
 11
-41.50418340685962
 21
-151.0487016302189
 31
0.0
  0
LINE
  5
1CE
  8
DIMNSIONS
  6
CONTINUOUS
 62
     7
 10
-37.50442754748462
 20
-149.9769702777778
 30
0.0
 11
-41.50418340685962
 21
-148.9052389253366
 31
0.0
  0
TEXT
  5
1CF
  8
DIMNSIONS
 62
     7
 10
-69.5577693292979
 20
-147.9891925
 30
0.0
 40
5.429470486111112
  1
50.0
 41
0.7
 11
-69.5577693292979
 21
-142.5597220138889
 31
0.0
 73
     3
  0
LINE
  5
1D0
  8
DIMNSIONS
  6
CONTINUOUS
 62
     7
 10
-64.9
 20
62.14999999999999
 30
0.0
 11
-108.25
 21
62.14999999999999
 31
0.0
  0
LINE
  5
1D1
  8
DIMNSIONS
  6
CONTINUOUS
 62
     7
 10
-64.9
 20
100.15
 30
0.0
 11
-108.25
 21
100.15
 31
0.0
  0
LINE
  5
1D2
  8
DIMNSIONS
  6
CONTINUOUS
 62
     7
 10
-106.25
 20
62.14999999999999
 30
0.0
 11
-106.25
 21
100.15
 31
0.0
  0
LINE
  5
1D3
  8
DIMNSIONS
  6
CONTINUOUS
 62
     7
 10
-106.25
 20
62.14999999999999
 30
0.0
 11
-107.3217313524412
 21
66.14975585937499
 31
0.0
  0
LINE
  5
1D4
  8
DIMNSIONS
  6
CONTINUOUS
 62
     7
 10
-106.25
 20
62.14999999999999
 30
0.0
 11
-105.1782686475588
 21
66.14975585937499
 31
0.0
  0
LINE
  5
1D5
  8
DIMNSIONS
  6
CONTINUOUS
 62
     7
 10
-106.25
 20
100.15
 30
0.0
 11
-105.1782686475588
 21
96.15024414062499
 31
0.0
  0
LINE
  5
1D6
  8
DIMNSIONS
  6
CONTINUOUS
 62
     7
 10
-106.25
 20
100.15
 30
0.0
 11
-107.3217313524412
 21
96.15024414062499
 31
0.0
  0
TEXT
  5
1D7
  8
DIMNSIONS
 62
     7
 10
-108.2377777777778
 20
74.09444444444443
 30
0.0
 40
5.429470486111112
  1
38.0
 50
90.0
 41
0.7
 11
-113.6672482638889
 21
74.09444444444443
 31
0.0
 73
     3
  0
LINE
  5
1D8
  8
DIMNSIONS
  6
CONTINUOUS
 62
     7
 10
-75.90000000000006
 20
-124.9769702777778
 30
0.0
 11
-95.75
 21
-124.9769702777778
 31
0.0
  0
LINE
  5
1D9
  8
DIMNSIONS
  6
CONTINUOUS
 62
     7
 10
-84.2198623905692
 20
-82.97697027777775
 30
0.0
 11
-95.75
 21
-82.97697027777775
 31
0.0
  0
LINE
  5
1DA
  8
DIMNSIONS
  6
CONTINUOUS
 62
     7
 10
-93.75
 20
-124.9769702777778
 30
0.0
 11
-93.75
 21
-82.97697027777775
 31
0.0
  0
LINE
  5
1DB
  8
DIMNSIONS
  6
CONTINUOUS
 62
     7
 10
-93.75
 20
-124.9769702777778
 30
0.0
 11
-94.82173135244118
 21
-120.9772144184028
 31
0.0
  0
LINE
  5
1DC
  8
DIMNSIONS
  6
CONTINUOUS
 62
     7
 10
-93.75
 20
-124.9769702777778
 30
0.0
 11
-92.67826864755882
 21
-120.9772144184028
 31
0.0
  0
LINE
  5
1DD
  8
DIMNSIONS
  6
CONTINUOUS
 62
     7
 10
-93.75
 20
-82.97697027777775
 30
0.0
 11
-92.67826864755882
 21
-86.97672613715275
 31
0.0
  0
LINE
  5
1DE
  8
DIMNSIONS
  6
CONTINUOUS
 62
     7
 10
-93.75
 20
-82.97697027777775
 30
0.0
 11
-94.82173135244118
 21
-86.97672613715275
 31
0.0
  0
TEXT
  5
1DF
  8
DIMNSIONS
 62
     7
 10
-95.73777777777778
 20
-111.0325258333333
 30
0.0
 40
5.429470486111112
  1
42.0
 50
90.0
 41
0.7
 11
-101.1672482638889
 21
-111.0325258333333
 31
0.0
 73
     3
  0
LINE
  5
1E0
  8
DIMNSIONS
  6
CONTINUOUS
 62
     7
 10
-74.0
 20
-126.8769702777778
 30
0.0
 11
-74.0
 21
-139.4769702777778
 31
0.0
  0
LINE
  5
1E1
  8
DIMNSIONS
  6
CONTINUOUS
 62
     7
 10
-51.0
 20
-126.8769702777778
 30
0.0
 11
-51.0
 21
-139.4769702777778
 31
0.0
  0
LINE
  5
1E2
  8
DIMNSIONS
  6
CONTINUOUS
 62
     7
 10
-74.0
 20
-137.4769702777778
 30
0.0
 11
-51.0
 21
-137.4769702777778
 31
0.0
  0
LINE
  5
1E3
  8
DIMNSIONS
  6
CONTINUOUS
 62
     7
 10
-74.0
 20
-137.4769702777778
 30
0.0
 11
-70.000244140625
 21
-136.4052389253366
 31
0.0
  0
LINE
  5
1E4
  8
DIMNSIONS
  6
CONTINUOUS
 62
     7
 10
-74.0
 20
-137.4769702777778
 30
0.0
 11
-70.000244140625
 21
-138.5487016302189
 31
0.0
  0
LINE
  5
1E5
  8
DIMNSIONS
  6
CONTINUOUS
 62
     7
 10
-51.0
 20
-137.4769702777778
 30
0.0
 11
-54.999755859375
 21
-138.5487016302189
 31
0.0
  0
LINE
  5
1E6
  8
DIMNSIONS
  6
CONTINUOUS
 62
     7
 10
-51.0
 20
-137.4769702777778
 30
0.0
 11
-54.999755859375
 21
-136.4052389253366
 31
0.0
  0
TEXT
  5
1E7
  8
DIMNSIONS
 62
     7
 10
-69.55555555555556
 20
-135.4891925
 30
0.0
 40
5.429470486111112
  1
23.0
 41
0.7
 11
-69.55555555555556
 21
-130.0597220138889
 31
0.0
 73
     3
  0
ARC
  5
1E8
  8
DATA
  6
CONTINUOUS
 62
     7
 10
-62.50814890111624
 20
-174.9769702777778
 30
0.0
 40
11.50000000000001
 50
156.9643158940585
 51
23.03568410594136
  0
TEXT
  5
1E9
  8
DATA
 62
     7
 10
-176.0
 20
-240.7156294444444
 30
0.0
 40
3.800629340277778
  1
※仕様及び外観は予告なく変更されることがあります。
 41
0.7
 11
-176.0
 21
-236.9150001041666
 31
0.0
 73
     3
  0
TEXT
  5
1EA
  8
DATA
 62
     7
 10
-176.0
 20
-245.6545183333333
 30
0.0
 40
3.800629340277778
  1
　また、同一商品でも若干の個体差があることがあります。ご了承ください。
 41
0.7
 11
-176.0
 21
-241.8538889930555
 31
0.0
 73
     3
  0
TEXT
  5
1EB
  8
DATA
 62
     7
 10
99.99999999999997
 20
-219.7064049999999
 30
0.0
 40
4.8865234375
  1
AKG
 41
0.7
 11
99.99999999999997
 21
-214.8198815624999
 31
0.0
 73
     3
  0
TEXT
  5
1EC
  8
DATA
 62
     7
 10
94.99999999999997
 20
-226.9143149999999
 30
0.0
 40
3.800629340277778
  1
サイドアドレス型マイクロホン
 41
0.7
 11
94.99999999999997
 21
-223.1136856597222
 31
0.0
 73
     3
  0
LINE
  5
1ED
  8
DATA
  6
CONTINUOUS
 62
     7
 10
73.5
 20
-124.9769702777778
 30
0.0
 11
51.5
 21
-124.9769702777778
 31
0.0
  0
LINE
  5
1EE
  8
DATA
  6
CONTINUOUS
 62
     7
 10
81.81986239056914
 20
-82.97697027777775
 30
0.0
 11
43.18013760943086
 21
-82.97697027777775
 31
0.0
  0
LINE
  5
1EF
  8
DATA
  6
CONTINUOUS
 62
     7
 10
51.5
 20
-122.9769702777778
 30
0.0
 11
51.5
 21
-82.97697027777775
 31
0.0
  0
LINE
  5
1F0
  8
DATA
  6
CONTINUOUS
 62
     7
 10
73.5
 20
-82.97697027777775
 30
0.0
 11
73.5
 21
-122.9769702777778
 31
0.0
  0
LINE
  5
1F1
  8
DATA
  6
CONTINUOUS
 62
     7
 10
51.0
 20
-124.4769702777778
 30
0.0
 11
51.0
 21
-123.4769702777778
 31
0.0
  0
LINE
  5
1F2
  8
DATA
  6
CONTINUOUS
 62
     7
 10
74.0
 20
-123.4769702777778
 30
0.0
 11
74.0
 21
-124.4769702777778
 31
0.0
  0
LINE
  5
1F3
  8
DATA
  6
CONTINUOUS
 62
     7
 10
51.5
 20
-122.9769702777778
 30
0.0
 11
73.5
 21
-122.9769702777778
 31
0.0
  0
LINE
  5
1F4
  8
DATA
  6
CONTINUOUS
 62
     7
 10
41.3844030182695
 20
-81.30081404268543
 30
0.0
 11
37.5
 21
-24.97697027777774
 31
0.0
  0
LINE
  5
1F5
  8
DATA
  6
CONTINUOUS
 62
     7
 10
83.6155969817305
 20
-81.30081404268543
 30
0.0
 11
87.5
 21
-24.97697027777774
 31
0.0
  0
LINE
  5
1F6
  8
DATA
  6
CONTINUOUS
 62
     7
 10
37.5
 20
-24.97697027777774
 30
0.0
 11
39.90339356091772
 21
32.70447518424666
 31
0.0
  0
LINE
  5
1F7
  8
DATA
  6
CONTINUOUS
 62
     7
 10
87.5
 20
-24.97697027777774
 30
0.0
 11
85.09660643908228
 21
32.70447518424575
 31
0.0
  0
ARC
  5
1F8
  8
DATA
  6
CONTINUOUS
 62
     7
 10
62.5
 20
-219.5403383333339
 30
0.0
 40
254.5633680555561
 50
85.21769682826265
 51
94.78230317173731
  0
ARC
  5
1F9
  8
DATA
  6
CONTINUOUS
 62
     7
 10
41.40209317055974
 20
32.64202936717825
 30
0.0
 40
1.500000000003582
 50
94.78230317186949
 51
177.6140559696116
  0
ARC
  5
1FA
  8
DATA
  6
CONTINUOUS
 62
     7
 10
83.59790682943913
 20
32.64202936717729
 30
0.0
 40
1.50000000000463
 50
2.385944030388813
 51
85.21769682808167
  0
LINE
  5
1FB
  8
DATA
  6
CONTINUOUS
 62
     7
 10
38.70051623866721
 20
-24.96458054976408
 30
0.0
 11
41.06468112672223
 21
31.77537676355541
 31
0.0
  0
LINE
  5
1FC
  8
DATA
  6
CONTINUOUS
 62
     7
 10
86.2994837613328
 20
-24.96458054976772
 30
0.0
 11
83.93531887327799
 21
31.77537676354908
 31
0.0
  0
ARC
  5
1FD
  8
DATA
  6
CONTINUOUS
 62
     7
 10
62.5
 20
-220.7403383333338
 30
0.0
 40
254.5633680555561
 50
85.43971795315504
 51
94.56028204684479
  0
ARC
  5
1FE
  8
DATA
  6
CONTINUOUS
 62
     7
 10
42.36355412173407
 20
31.72125705542993
 30
0.0
 40
1.299999999991842
 50
94.5602820464869
 51
177.614055969611
  0
ARC
  5
1FF
  8
DATA
  6
CONTINUOUS
 62
     7
 10
82.63644587825888
 20
31.72125705542328
 30
0.0
 40
1.299999999999052
 50
2.385944030388813
 51
85.43971795319668
  0
ARC
  5
200
  8
DATA
  6
CONTINUOUS
 62
     7
 10
43.18013760943086
 20
-81.17697027777774
 30
0.0
 40
1.799999999999994
 50
183.9451862290379
 51
270.0
  0
ARC
  5
201
  8
DATA
  6
CONTINUOUS
 62
     7
 10
81.81986239056914
 20
-81.17697027777774
 30
0.0
 40
1.800000000000011
 50
270.0
 51
356.0548137709621
  0
LINE
  5
202
  8
DATA
  6
CONTINUOUS
 62
     7
 10
58.01022164816504
 20
-35.60147473700194
 30
0.0
 11
46.44714913545681
 21
-35.59002193093073
 31
0.0
  0
LINE
  5
203
  8
DATA
  6
CONTINUOUS
 62
     7
 10
59.39999999999986
 20
-25.85535732396521
 30
0.0
 11
57.86764363163843
 21
-36.6013335186215
 31
0.0
  0
LINE
  5
204
  8
DATA
  6
CONTINUOUS
 62
     7
 10
45.39999999999986
 20
-25.40325144374502
 30
0.0
 11
46.54995460877649
 21
-36.59012375604233
 31
0.0
  0
ARC
  5
205
  8
DATA
  6
CONTINUOUS
 62
     7
 10
62.5
 20
284.8292908618524
 30
0.0
 40
313.0000000000001
 50
266.9117856460758
 51
269.3741385289738
  0
LINE
  5
206
  8
DATA
  6
CONTINUOUS
 62
     7
 10
57.86764363163843
 20
-36.6013335186215
 30
0.0
 11
46.54995460877649
 21
-36.59012375604233
 31
0.0
  0
LINE
  5
207
  8
DATA
  6
CONTINUOUS
 62
     7
 10
48.98750076831834
 20
-33.2913472424997
 30
0.0
 11
46.98750076831834
 21
-31.69134724249969
 31
0.0
  0
LINE
  5
208
  8
DATA
  6
CONTINUOUS
 62
     7
 10
48.98750076831834
 20
-30.09134724249968
 30
0.0
 11
46.98750076831834
 21
-31.69134724249969
 31
0.0
  0
LINE
  5
209
  8
DATA
  6
CONTINUOUS
 62
     7
 10
48.98750076831834
 20
-33.2913472424997
 30
0.0
 11
48.98750076831834
 21
-30.09134724249968
 31
0.0
  0
LINE
  5
20A
  8
DATA
  6
CONTINUOUS
 62
     7
 10
55.61657326422187
 20
-33.2913472424997
 30
0.0
 11
57.61657326422187
 21
-31.69134724249969
 31
0.0
  0
LINE
  5
20B
  8
DATA
  6
CONTINUOUS
 62
     7
 10
55.61657326422187
 20
-30.09134724249968
 30
0.0
 11
57.61657326422187
 21
-31.69134724249969
 31
0.0
  0
LINE
  5
20C
  8
DATA
  6
CONTINUOUS
 62
     7
 10
55.61657326422187
 20
-33.2913472424997
 30
0.0
 11
55.61657326422187
 21
-30.09134724249968
 31
0.0
  0
LINE
  5
20D
  8
DATA
  6
CONTINUOUS
 62
     7
 10
66.98977835183473
 20
-35.60147473700194
 30
0.0
 11
78.55285086454319
 21
-35.59002193093073
 31
0.0
  0
LINE
  5
20E
  8
DATA
  6
CONTINUOUS
 62
     7
 10
65.59999999999991
 20
-25.85535732396521
 30
0.0
 11
67.13235636836157
 21
-36.6013335186215
 31
0.0
  0
LINE
  5
20F
  8
DATA
  6
CONTINUOUS
 62
     7
 10
79.59999999999991
 20
-25.40325144374502
 30
0.0
 11
78.45004539122351
 21
-36.59012375604233
 31
0.0
  0
ARC
  5
210
  8
DATA
  6
CONTINUOUS
 62
     7
 10
62.5
 20
284.8292908618524
 30
0.0
 40
313.0000000000002
 50
270.6258614710262
 51
273.0882143539242
  0
LINE
  5
211
  8
DATA
  6
CONTINUOUS
 62
     7
 10
67.13235636836157
 20
-36.6013335186215
 30
0.0
 11
78.45004539122351
 21
-36.59012375604233
 31
0.0
  0
LINE
  5
212
  8
DATA
  6
CONTINUOUS
 62
     7
 10
76.01249923168143
 20
-33.2913472424997
 30
0.0
 11
78.01249923168143
 21
-31.69134724249969
 31
0.0
  0
LINE
  5
213
  8
DATA
  6
CONTINUOUS
 62
     7
 10
76.01249923168143
 20
-30.09134724249968
 30
0.0
 11
78.01249923168143
 21
-31.69134724249969
 31
0.0
  0
LINE
  5
214
  8
DATA
  6
CONTINUOUS
 62
     7
 10
76.01249923168143
 20
-33.2913472424997
 30
0.0
 11
76.01249923168143
 21
-30.09134724249968
 31
0.0
  0
LINE
  5
215
  8
DATA
  6
CONTINUOUS
 62
     7
 10
69.3834267357779
 20
-33.2913472424997
 30
0.0
 11
67.3834267357779
 21
-31.69134724249969
 31
0.0
  0
LINE
  5
216
  8
DATA
  6
CONTINUOUS
 62
     7
 10
69.3834267357779
 20
-30.09134724249968
 30
0.0
 11
67.3834267357779
 21
-31.69134724249969
 31
0.0
  0
LINE
  5
217
  8
DATA
  6
CONTINUOUS
 62
     7
 10
69.3834267357779
 20
-33.2913472424997
 30
0.0
 11
69.3834267357779
 21
-30.09134724249968
 31
0.0
  0
TEXT
  5
218
  8
DATA
 62
     7
 10
46.29738724813372
 20
-40.33869655817065
 30
0.0
 40
2.171788194444445
  1
0-6-12-18
 41
0.7
 72
     1
 11
52.25170654790224
 21
-39.25280246094843
 31
0.0
 73
     2
  0
TEXT
  5
219
  8
DATA
 62
     7
 10
50.52529003265854
 20
-43.7819777329368
 30
0.0
 40
2.171788194444445
  1
dB
 41
0.7
 72
     1
 11
51.7921664794178
 21
-42.69608363571457
 31
0.0
 73
     2
  0
TEXT
  5
21A
  8
DATA
 62
     7
 10
66.49693831979073
 20
-40.33869655817065
 30
0.0
 40
2.171788194444445
  1
0 40 80 160
 41
0.7
 72
     1
 11
72.93267066932776
 21
-39.25280246094843
 31
0.0
 73
     2
  0
TEXT
  5
21B
  8
DATA
 62
     7
 10
74.3830907713756
 20
-43.7819777329368
 30
0.0
 40
2.171788194444445
  1
Hz
 41
0.7
 72
     1
 11
75.64996721813486
 21
-42.69608363571457
 31
0.0
 73
     2
  0
LINE
  5
21C
  8
DATA
  6
CONTINUOUS
 62
     7
 10
72.52219174370293
 20
-42.24737884377697
 30
0.0
 11
70.3388732122728
 21
-42.24737884377697
 31
0.0
  0
LINE
  5
21D
  8
DATA
  6
CONTINUOUS
 62
     7
 10
70.3388732122728
 20
-42.24737884377699
 30
0.0
 11
69.59693772840183
 21
-43.24737884377697
 31
0.0
  0
TEXT
  5
21E
  8
DATA
 62
     7
 10
59.82796084622333
 20
-49.78488557050731
 30
0.0
 40
2.714735243055556
  1
P48
 41
0.7
 72
     1
 11
62.36171373974184
 21
-48.42751794897953
 31
0.0
 73
     2
  0
ARC
  5
21F
  8
DATA
  6
CONTINUOUS
 62
     7
 10
51.5
 20
-124.4769702777778
 30
0.0
 40
0.5
 50
180.0
 51
270.0
  0
ARC
  5
220
  8
DATA
  6
CONTINUOUS
 62
     7
 10
51.5
 20
-123.4769702777778
 30
0.0
 40
0.5
 50
90.0
 51
180.0
  0
ARC
  5
221
  8
DATA
  6
CONTINUOUS
 62
     7
 10
73.5
 20
-123.4769702777778
 30
0.0
 40
0.5
 50
0.0
 51
90.0
  0
ARC
  5
222
  8
DATA
  6
CONTINUOUS
 62
     7
 10
73.5
 20
-124.4769702777778
 30
0.0
 40
0.5
 50
270.0
 51
0.0
  0
LINE
  5
223
  8
DATA
  6
CONTINUOUS
 62
     7
 10
-51.5
 20
-124.9769702777778
 30
0.0
 11
-73.5
 21
-124.9769702777778
 31
0.0
  0
LINE
  5
224
  8
DATA
  6
CONTINUOUS
 62
     7
 10
-43.18013760943086
 20
-82.97697027777775
 30
0.0
 11
-81.81986239056914
 21
-82.97697027777775
 31
0.0
  0
LINE
  5
225
  8
DATA
  6
CONTINUOUS
 62
     7
 10
-73.5
 20
-122.9769702777778
 30
0.0
 11
-73.5
 21
-82.97697027777775
 31
0.0
  0
LINE
  5
226
  8
DATA
  6
CONTINUOUS
 62
     7
 10
-51.5
 20
-82.97697027777775
 30
0.0
 11
-51.5
 21
-122.9769702777778
 31
0.0
  0
LINE
  5
227
  8
DATA
  6
CONTINUOUS
 62
     7
 10
-74.0
 20
-124.4769702777778
 30
0.0
 11
-74.0
 21
-123.4769702777778
 31
0.0
  0
LINE
  5
228
  8
DATA
  6
CONTINUOUS
 62
     7
 10
-51.0
 20
-123.4769702777778
 30
0.0
 11
-51.0
 21
-124.4769702777778
 31
0.0
  0
LINE
  5
229
  8
DATA
  6
CONTINUOUS
 62
     7
 10
-73.5
 20
-122.9769702777778
 30
0.0
 11
-51.5
 21
-122.9769702777778
 31
0.0
  0
LINE
  5
22A
  8
DATA
  6
CONTINUOUS
 62
     7
 10
-83.6155969817305
 20
-81.30081404268543
 30
0.0
 11
-87.5
 21
-24.97697027777774
 31
0.0
  0
LINE
  5
22B
  8
DATA
  6
CONTINUOUS
 62
     7
 10
-41.3844030182695
 20
-81.30081404268543
 30
0.0
 11
-37.5
 21
-24.97697027777774
 31
0.0
  0
LINE
  5
22C
  8
DATA
  6
CONTINUOUS
 62
     7
 10
-87.5
 20
-24.97697027777774
 30
0.0
 11
-85.09660643908234
 21
32.70447518424666
 31
0.0
  0
LINE
  5
22D
  8
DATA
  6
CONTINUOUS
 62
     7
 10
-37.5
 20
-24.97697027777774
 30
0.0
 11
-39.90339356091766
 21
32.70447518424575
 31
0.0
  0
ARC
  5
22E
  8
DATA
  6
CONTINUOUS
 62
     7
 10
-62.5
 20
-219.5403383333339
 30
0.0
 40
254.5633680555561
 50
85.21769682826267
 51
94.78230317173731
  0
ARC
  5
22F
  8
DATA
  6
CONTINUOUS
 62
     7
 10
-83.5979068294402
 20
32.64202936717825
 30
0.0
 40
1.500000000003592
 50
94.78230317187382
 51
177.6140559696117
  0
ARC
  5
230
  8
DATA
  6
CONTINUOUS
 62
     7
 10
-41.40209317056087
 20
32.64202936717729
 30
0.0
 40
1.500000000004687
 50
2.385944030388722
 51
85.21769682808599
  0
LINE
  5
231
  8
DATA
  6
CONTINUOUS
 62
     7
 10
-86.2994837613328
 20
-24.96458054976408
 30
0.0
 11
-83.93531887327782
 21
31.77537676355541
 31
0.0
  0
LINE
  5
232
  8
DATA
  6
CONTINUOUS
 62
     7
 10
-38.70051623866709
 20
-24.96458054976772
 30
0.0
 11
-41.06468112672201
 21
31.77537676354908
 31
0.0
  0
ARC
  5
233
  8
DATA
  6
CONTINUOUS
 62
     7
 10
-62.5
 20
-220.7403383333338
 30
0.0
 40
254.5633680555561
 50
85.43971795315504
 51
94.56028204684479
  0
ARC
  5
234
  8
DATA
  6
CONTINUOUS
 62
     7
 10
-82.63644587826593
 20
31.72125705542993
 30
0.0
 40
1.299999999991842
 50
94.5602820464869
 51
177.6140559696111
  0
ARC
  5
235
  8
DATA
  6
CONTINUOUS
 62
     7
 10
-42.36355412174112
 20
31.72125705542328
 30
0.0
 40
1.299999999999109
 50
2.385944030388708
 51
85.43971795319668
  0
ARC
  5
236
  8
DATA
  6
CONTINUOUS
 62
     7
 10
-81.81986239056914
 20
-81.17697027777774
 30
0.0
 40
1.799999999999994
 50
183.9451862290379
 51
270.0
  0
ARC
  5
237
  8
DATA
  6
CONTINUOUS
 62
     7
 10
-43.18013760943086
 20
-81.17697027777774
 30
0.0
 40
1.800000000000011
 50
270.0
 51
356.0548137709621
  0
ARC
  5
238
  8
DATA
  6
CONTINUOUS
 62
     7
 10
-62.5
 20
287.1292908618524
 30
0.0
 40
313.0000000000001
 50
265.418779914723
 51
274.581220085277
  0
LINE
  5
239
  8
DATA
  6
CONTINUOUS
 62
     7
 10
-74.93030740575529
 20
-25.62378659350809
 30
0.0
 11
-73.78649201948843
 21
-36.75093594127459
 31
0.0
  0
LINE
  5
23A
  8
DATA
  6
CONTINUOUS
 62
     7
 10
-71.34894585994647
 20
-33.45215942773196
 30
0.0
 11
-73.34894585994647
 21
-31.85215942773197
 31
0.0
  0
LINE
  5
23B
  8
DATA
  6
CONTINUOUS
 62
     7
 10
-71.34894585994647
 20
-30.25215942773196
 30
0.0
 11
-73.34894585994647
 21
-31.85215942773197
 31
0.0
  0
LINE
  5
23C
  8
DATA
  6
CONTINUOUS
 62
     7
 10
-71.34894585994647
 20
-33.45215942773196
 30
0.0
 11
-71.34894585994647
 21
-30.25215942773196
 31
0.0
  0
LINE
  5
23D
  8
DATA
  6
CONTINUOUS
 62
     7
 10
-50.11979967765762
 20
-25.62577406912321
 30
0.0
 11
-51.26341076135634
 21
-36.75093594127459
 31
0.0
  0
LINE
  5
23E
  8
DATA
  6
CONTINUOUS
 62
     7
 10
-53.70094390460724
 20
-33.45203280396406
 30
0.0
 11
-51.70094390460724
 21
-31.85203280396407
 31
0.0
  0
LINE
  5
23F
  8
DATA
  6
CONTINUOUS
 62
     7
 10
-53.70094390460724
 20
-30.25203280396406
 30
0.0
 11
-51.70094390460724
 21
-31.85203280396407
 31
0.0
  0
LINE
  5
240
  8
DATA
  6
CONTINUOUS
 62
     7
 10
-53.70094390460724
 20
-33.45203280396406
 30
0.0
 11
-53.70094390460724
 21
-30.25203280396406
 31
0.0
  0
ARC
  5
241
  8
DATA
  6
CONTINUOUS
 62
     7
 10
-73.5
 20
-124.4769702777778
 30
0.0
 40
0.5
 50
180.0
 51
270.0
  0
ARC
  5
242
  8
DATA
  6
CONTINUOUS
 62
     7
 10
-73.5
 20
-123.4769702777778
 30
0.0
 40
0.5
 50
90.0
 51
180.0
  0
ARC
  5
243
  8
DATA
  6
CONTINUOUS
 62
     7
 10
-51.5
 20
-123.4769702777778
 30
0.0
 40
0.5
 50
0.0
 51
90.0
  0
ARC
  5
244
  8
DATA
  6
CONTINUOUS
 62
     7
 10
-51.5
 20
-124.4769702777778
 30
0.0
 40
0.5
 50
270.0
 51
0.0
  0
ARC
  5
245
  8
DATA
  6
CONTINUOUS
 62
     7
 10
-62.5
 20
284.6570065289571
 30
0.0
 40
312.9999999999999
 50
267.7707347997767
 51
272.2200867734336
  0
TEXT
  5
246
  8
DATA
 62
     7
 10
-65.7375797364889
 20
-33.71183246705174
 30
0.0
 40
3.393419053819445
  1
XLS
 41
0.7
 72
     1
 11
-62.57038861959074
 21
-32.01512294014202
 31
0.0
 73
     2
  0
LINE
  5
247
  8
DATA
  6
CONTINUOUS
 62
     7
 10
11.0
 20
-124.9769702777778
 30
0.0
 11
-11.0
 21
-124.9769702777778
 31
0.0
  0
LINE
  5
248
  8
DATA
  6
CONTINUOUS
 62
     7
 10
-11.0
 20
-122.9769702777778
 30
0.0
 11
-11.0
 21
-82.97697027777775
 31
0.0
  0
LINE
  5
249
  8
DATA
  6
CONTINUOUS
 62
     7
 10
11.0
 20
-82.97697027777775
 30
0.0
 11
11.0
 21
-122.9769702777778
 31
0.0
  0
LINE
  5
24A
  8
DATA
  6
CONTINUOUS
 62
     7
 10
-11.5
 20
-124.4769702777778
 30
0.0
 11
-11.5
 21
-123.4769702777778
 31
0.0
  0
LINE
  5
24B
  8
DATA
  6
CONTINUOUS
 62
     7
 10
-11.0
 20
-122.9769702777778
 30
0.0
 11
11.0
 21
-122.9769702777778
 31
0.0
  0
ARC
  5
24C
  8
DATA
  6
CONTINUOUS
 62
     7
 10
-11.0
 20
-124.4769702777778
 30
0.0
 40
0.5
 50
180.0
 51
270.0
  0
ARC
  5
24D
  8
DATA
  6
CONTINUOUS
 62
     7
 10
-11.0
 20
-123.4769702777778
 30
0.0
 40
0.5
 50
90.0
 51
180.0
  0
LINE
  5
24E
  8
DATA
  6
STYLE_01
 62
     7
 10
-93.00000000000006
 20
-38.21933864468427
 30
0.0
 11
-32.00000000000006
 21
-38.21933864468427
 31
0.0
  0
ARC
  5
24F
  8
DATA
  6
STYLE_01
 62
     7
 10
-62.50000000000006
 20
-79.29415171489012
 30
0.0
 40
123.0748130702058
 50
76.60931116338293
 51
103.3906888366133
  0
LINE
  5
250
  8
DATA
  6
STYLE_01
 62
     7
 10
-92.53904114135344
 20
38.54014112687037
 30
0.0
 11
-94.46167980428322
 21
-36.7193386446843
 31
0.0
  0
LINE
  5
251
  8
DATA
  6
STYLE_01
 62
     7
 10
-32.46095885864588
 20
38.54014112683944
 30
0.0
 11
-30.53832019571689
 21
-36.71933864468427
 31
0.0
  0
LINE
  5
252
  8
DATA
  6
STYLE_01
 62
     7
 10
-93.00000000000006
 20
-38.21933864468427
 30
0.0
 11
-94.46167980428322
 21
-36.71933864468427
 31
0.0
  0
LINE
  5
253
  8
DATA
  6
STYLE_01
 62
     7
 10
-32.00000000000006
 20
-38.21933864468427
 30
0.0
 11
-30.53832019571689
 21
-36.71933864468427
 31
0.0
  0
ARC
  5
254
  8
DATA
  6
STYLE_01
 62
     7
 10
-90.53969346094277
 20
38.48906419725745
 30
0.0
 40
1.999999999975553
 50
103.390688835937
 51
178.5365946465449
  0
ARC
  5
255
  8
DATA
  6
STYLE_01
 62
     7
 10
-34.46030653909673
 20
38.4890641972255
 30
0.0
 40
2.000000000015749
 50
1.463405353454956
 51
76.60931116294609
  0
ARC
  5
256
  8
DATA
  6
STYLE_01
 62
     7
 10
-88.92727671970795
 20
103.5314281188299
 30
0.0
 40
1.999999999999996
 50
101.7467055531739
 51
161.9730515435426
  0
ARC
  5
257
  8
DATA
  6
STYLE_01
 62
     7
 10
-20.46167980428316
 20
81.24999999999999
 30
0.0
 40
74.00000000000004
 50
161.9730515435429
 51
198.0269484564571
  0
ARC
  5
258
  8
DATA
  6
STYLE_01
 62
     7
 10
-36.07272328029217
 20
103.5314281188299
 30
0.0
 40
1.999999999999988
 50
18.02694845645589
 51
78.25329444682609
  0
ARC
  5
259
  8
DATA
  6
STYLE_01
 62
     7
 10
-62.50000000000006
 20
-23.55925624620929
 30
0.0
 40
131.8092562462093
 50
78.2532944468271
 51
101.7467055531729
  0
ARC
  5
25A
  8
DATA
  6
STYLE_01
 62
     7
 10
-88.92727671970795
 20
58.96857188117012
 30
0.0
 40
2.000000000000006
 50
198.0269484564574
 51
258.2532944468263
  0
ARC
  5
25B
  8
DATA
  6
STYLE_01
 62
     7
 10
-62.50000000000006
 20
186.0592562462092
 30
0.0
 40
131.8092562462092
 50
258.2532944468271
 51
281.7467055531728
  0
ARC
  5
25C
  8
DATA
  6
STYLE_01
 62
     7
 10
-36.07272328029217
 20
58.96857188117012
 30
0.0
 40
2.000000000000012
 50
281.7467055531721
 51
341.9730515435426
  0
ARC
  5
25D
  8
DATA
  6
STYLE_01
 62
     7
 10
-104.5383201957169
 20
81.24999999999999
 30
0.0
 40
73.99999999999999
 50
341.9730515435429
 51
18.02694845645715
  0
LINE
  5
25E
  8
DATA
  6
CONTINUOUS
 62
     7
 10
-38.01825714583245
 20
41.32116190277836
 30
0.0
 11
-25.0
 21
50.0
 31
0.0
  0
LINE
  5
25F
  8
DATA
  6
CONTINUOUS
 62
     7
 10
-38.01825714583245
 20
41.32116190277836
 30
0.0
 11
-33.61939003333102
 21
46.206598768993
 31
0.0
  0
LINE
  5
260
  8
DATA
  6
CONTINUOUS
 62
     7
 10
-38.01825714583245
 20
41.32116190277836
 30
0.0
 11
-31.76600804542699
 21
43.35264078125456
 31
0.0
  0
LINE
  5
261
  8
DATA
  6
CONTINUOUS
 62
     7
 10
-25.0
 20
50.0
 30
0.0
 11
-37.5
 21
56.74256477181379
 31
0.0
  0
LINE
  5
262
  8
DATA
  6
CONTINUOUS
 62
     7
 10
-37.5
 20
56.74256477181379
 30
0.0
 11
-31.09448754449743
 21
55.26373569797965
 31
0.0
  0
LINE
  5
263
  8
DATA
  6
CONTINUOUS
 62
     7
 10
-37.5
 20
56.74256477181379
 30
0.0
 11
-32.6920780261942
 21
52.25910499826712
 31
0.0
  0
TEXT
  5
264
  8
DATA
 62
     7
 10
-18.75
 20
53.71
 30
0.0
 40
5.429470486111112
  1
ウインドスクリーン
 41
0.7
 11
-18.75
 21
59.13947048611112
 31
0.0
 73
     3
  0
LINE
  5
265
  8
DATA
  6
CONTINUOUS
 62
     7
 10
-25.0
 20
50.0
 30
0.0
 11
50.0
 21
50.0
 31
0.0
  0
TEXT
  5
266
  8
DATA
 62
     7
 10
55.58580684100355
 20
-74.24452665446223
 30
0.0
 40
5.429470486111112
  1
C414
 41
0.7
 72
     1
 11
61.92018907479985
 21
-71.52979141140668
 31
0.0
 73
     2
  0
CIRCLE
  5
267
  8
DATA
  6
CONTINUOUS
 62
     7
 10
62.5
 20
3.077356417447366
 30
0.0
 40
16.0
  0
CIRCLE
  5
268
  8
DATA
  6
CONTINUOUS
 62
     7
 10
62.5
 20
3.077356417447366
 30
0.0
 40
14.5
  0
CIRCLE
  5
269
  8
DATA
  6
CONTINUOUS
 62
     7
 10
-62.5
 20
-107.9769702777778
 30
0.0
 40
2.0
  0
LINE
  5
26A
  8
DATA
  6
CONTINUOUS
 62
     7
 10
-63.57480230740356
 20
-107.9769702777778
 30
0.0
 11
-61.4251976925965
 21
-107.9769702777778
 31
0.0
  0
LINE
  5
26B
  8
DATA
  6
CONTINUOUS
 62
     7
 10
-62.5
 20
-109.0517725851813
 30
0.0
 11
-62.5
 21
-106.9021679703742
 31
0.0
  0
LINE
  5
26C
  8
DATA
  6
CONTINUOUS
 62
     7
 10
-73.88929749280817
 20
-35.75083411616301
 30
0.0
 11
-51.16060528803661
 21
-35.75083411616301
 31
0.0
  0
LINE
  5
26D
  8
DATA
  6
CONTINUOUS
 62
     7
 10
-73.78649201948843
 20
-36.75093594127459
 30
0.0
 11
-51.26341076135634
 21
-36.75093594127459
 31
0.0
  0
CIRCLE
  5
26E
  8
DATA
  6
CONTINUOUS
 62
     7
 10
-72.48976418014894
 20
-40.75682390683602
 30
0.0
 40
1.5
  0
LINE
  5
26F
  8
DATA
  6
CONTINUOUS
 62
     7
 10
-65.79986447134996
 20
-40.81331673645273
 30
0.0
 11
-65.79986447134996
 21
-41.23364588671242
 31
0.0
  0
LINE
  5
270
  8
DATA
  6
CONTINUOUS
 62
     7
 10
-69.19986447134994
 20
-41.23364588671242
 30
0.0
 11
-69.19986447134994
 21
-40.81331673645273
 31
0.0
  0
ARC
  5
271
  8
DATA
  6
CONTINUOUS
 62
     7
 10
-67.49986447134995
 20
-40.94252805198306
 30
0.0
 40
1.704903388483066
 50
4.346503536099888
 51
175.6534964639001
  0
ARC
  5
272
  8
DATA
  6
CONTINUOUS
 62
     7
 10
-67.49986447134995
 20
-46.57798814860141
 30
0.0
 40
5.22467141214867
 50
75.32068426707157
 51
104.6793157329285
  0
LINE
  5
273
  8
DATA
  6
CONTINUOUS
 62
     7
 10
-60.80230155872454
 20
-40.86010761403125
 30
0.0
 11
-60.80230155872454
 21
-40.99622939895646
 31
0.0
  0
LINE
  5
274
  8
DATA
  6
CONTINUOUS
 62
     7
 10
-64.20230155872451
 20
-40.99622939895646
 30
0.0
 11
-64.20230155872451
 21
-40.86010761403125
 31
0.0
  0
ARC
  5
275
  8
DATA
  6
CONTINUOUS
 62
     7
 10
-62.50230155872453
 20
-40.98931892956158
 30
0.0
 40
1.704903388483066
 50
4.346503536099888
 51
175.6534964639001
  0
ARC
  5
276
  8
DATA
  6
CONTINUOUS
 62
     7
 10
-68.89986447134993
 20
-41.23364588671242
 30
0.0
 40
0.3000000000000114
 50
180.0
 51
284.6793157329229
  0
ARC
  5
277
  8
DATA
  6
CONTINUOUS
 62
     7
 10
-66.09986447134997
 20
-41.23364588671242
 30
0.0
 40
0.2999999999999823
 50
255.3206842670764
 51
0.0
  0
ARC
  5
278
  8
DATA
  6
CONTINUOUS
 62
     7
 10
-62.50230155872453
 20
-43.02524726723045
 30
0.0
 40
2.165139653199201
 50
55.39475161232765
 51
124.6052483876723
  0
ARC
  5
279
  8
DATA
  6
CONTINUOUS
 62
     7
 10
-63.9023015587245
 20
-40.99622939895646
 30
0.0
 40
0.3000000000000114
 50
180.0
 51
304.6052483876749
  0
ARC
  5
27A
  8
DATA
  6
CONTINUOUS
 62
     7
 10
-61.10230155872455
 20
-40.99622939895646
 30
0.0
 40
0.3000000000000021
 50
235.3947516123251
 51
0.0
  0
ARC
  5
27B
  8
DATA
  6
CONTINUOUS
 62
     7
 10
-57.49868182835155
 20
-40.42869716767453
 30
0.0
 40
1.150000000000073
 50
292.3099426292216
 51
247.6900573707845
  0
ARC
  5
27C
  8
DATA
  6
CONTINUOUS
 62
     7
 10
-57.49868182835149
 20
-41.72616915507278
 30
0.0
 40
0.49510868449449
 50
151.853486829684
 51
28.1465131703249
  0
CIRCLE
  5
27D
  8
DATA
  6
CONTINUOUS
 62
     7
 10
-52.51980754931697
 20
-40.24868090423656
 30
0.0
 40
1.0
  0
CIRCLE
  5
27E
  8
DATA
  6
CONTINUOUS
 62
     7
 10
-52.51980754931697
 20
-42.24868090423656
 30
0.0
 40
1.0
  0
LINE
  5
27F
  8
DATA
  6
CONTINUOUS
 62
     7
 10
-5.013804038400963
 20
35.02302972222225
 30
0.0
 11
5.013804038400906
 21
35.02302972222225
 31
0.0
  0
LINE
  5
280
  8
DATA
  6
CONTINUOUS
 62
     7
 10
-14.77577908592366
 20
-82.97697027777775
 30
0.0
 11
14.7757790859236
 21
-82.97697027777775
 31
0.0
  0
LINE
  5
281
  8
DATA
  6
CONTINUOUS
 62
     7
 10
-16.57411538894928
 20
-81.25434301987795
 30
0.0
 11
-19.0
 21
-24.87070913814773
 31
0.0
  0
LINE
  5
282
  8
DATA
  6
CONTINUOUS
 62
     7
 10
16.57411538894922
 20
-81.25434301987795
 30
0.0
 11
19.0
 21
-24.87070913814773
 31
0.0
  0
LINE
  5
283
  8
DATA
  6
CONTINUOUS
 62
     7
 10
11.0
 20
-122.9769702777778
 30
0.0
 11
11.0
 21
-124.9769702777778
 31
0.0
  0
LINE
  5
284
  8
DATA
  6
CONTINUOUS
 62
     7
 10
5.5
 20
-122.9769702777778
 30
0.0
 11
5.5
 21
-124.9769702777778
 31
0.0
  0
LINE
  5
285
  8
DATA
  6
CONTINUOUS
 62
     7
 10
-72.0
 20
-124.9769702777778
 30
0.0
 11
-72.0
 21
-122.9769702777778
 31
0.0
  0
LINE
  5
286
  8
DATA
  6
CONTINUOUS
 62
     7
 10
-53.0
 20
-124.9769702777778
 30
0.0
 11
-53.0
 21
-122.9769702777778
 31
0.0
  0
LINE
  5
287
  8
DATA
  6
CONTINUOUS
 62
     7
 10
-12.11571037789281
 20
33.82302972222226
 30
0.0
 11
-5.533600000000035
 21
33.82302972222226
 31
0.0
  0
LINE
  5
288
  8
DATA
  6
CONTINUOUS
 62
     7
 10
5.533599999999979
 20
33.82302972222226
 30
0.0
 11
12.11571037789275
 21
33.82302972222226
 31
0.0
  0
LINE
  5
289
  8
DATA
  6
CONTINUOUS
 62
     7
 10
-17.49369351661159
 20
-24.7649516841107
 30
0.0
 11
-14.11216390877519
 21
31.94208138759174
 31
0.0
  0
LINE
  5
28A
  8
DATA
  6
CONTINUOUS
 62
     7
 10
17.49369351661147
 20
-24.76495168411025
 30
0.0
 11
14.11216390877513
 21
31.94208138759174
 31
0.0
  0
LINE
  5
28B
  8
DATA
  6
CONTINUOUS
 62
     7
 10
-5.193216153603828
 20
-27.47697027777774
 30
0.0
 11
5.193216153603771
 21
-27.47697027777774
 31
0.0
  0
LINE
  5
28C
  8
DATA
  6
CONTINUOUS
 62
     7
 10
-5.513608153573728
 20
34.5370242374471
 30
0.0
 11
-7.19243261429483
 21
-25.42099221687839
 31
0.0
  0
LINE
  5
28D
  8
DATA
  6
CONTINUOUS
 62
     7
 10
5.513608153573671
 20
34.5370242374471
 30
0.0
 11
7.192432614294773
 21
-25.42099221687839
 31
0.0
  0
ARC
  5
28E
  8
DATA
  6
CONTINUOUS
 62
     7
 10
-5.193216153603828
 20
-25.47697027777774
 30
0.0
 40
1.999999999999977
 50
178.396137228845
 51
270.0
  0
ARC
  5
28F
  8
DATA
  6
CONTINUOUS
 62
     7
 10
5.193216153603771
 20
-25.47697027777774
 30
0.0
 40
2.0
 50
270.0
 51
1.603862771154979
  0
ARC
  5
290
  8
DATA
  6
CONTINUOUS
 62
     7
 10
-0.0000000000000568
 20
-284.7081977007222
 30
0.0
 40
260.5312274229444
 50
85.81782534986452
 51
88.42510309892829
  0
ARC
  5
291
  8
DATA
  6
CONTINUOUS
 62
     7
 10
-0.0000000000000568
 20
-284.7081977007222
 30
0.0
 40
260.5312274229444
 50
91.57489690107181
 51
94.18217465013544
  0
LINE
  5
292
  8
DATA
  6
CONTINUOUS
 62
     7
 10
-18.76911863565209
 20
-30.23697027777773
 30
0.0
 11
-18.76911863565209
 21
-35.54670191748185
 31
0.0
  0
LINE
  5
293
  8
DATA
  6
CONTINUOUS
 62
     7
 10
18.76911863565203
 20
-30.23697027777773
 30
0.0
 11
18.76911863565203
 21
-35.50949018819257
 31
0.0
  0
LINE
  5
294
  8
DATA
  6
CONTINUOUS
 62
     7
 10
18.76911863565203
 20
-35.50949018819257
 30
0.0
 11
18.54227045238378
 21
-35.50949018819257
 31
0.0
  0
LINE
  5
295
  8
DATA
  6
CONTINUOUS
 62
     7
 10
-18.76911863565209
 20
-35.54670191748185
 30
0.0
 11
-18.54066943174684
 21
-35.54670191748185
 31
0.0
  0
LINE
  5
296
  8
DATA
  6
CONTINUOUS
 62
     7
 10
-37.5
 20
75.49999999999999
 30
0.0
 11
-87.5
 21
75.49999999999999
 31
0.0
  0
LINE
  5
297
  8
DATA
  6
CONTINUOUS
 62
     7
 10
-87.5
 20
86.8
 30
0.0
 11
-37.5
 21
86.8
 31
0.0
  0
LINE
  5
298
  8
DATA
  6
CONTINUOUS
 62
     7
 10
-42.0
 20
91.37016060183318
 30
0.0
 11
-42.0
 21
86.8
 31
0.0
  0
LINE
  5
299
  8
DATA
  6
CONTINUOUS
 62
     7
 10
-83.0
 20
86.8
 30
0.0
 11
-83.0
 21
91.37016060183318
 31
0.0
  0
LINE
  5
29A
  8
DATA
  6
CONTINUOUS
 62
     7
 10
-83.0
 20
70.9298393981668
 30
0.0
 11
-83.0
 21
75.49999999999999
 31
0.0
  0
LINE
  5
29B
  8
DATA
  6
CONTINUOUS
 62
     7
 10
-42.0
 20
75.49999999999999
 30
0.0
 11
-42.0
 21
70.92983939816675
 31
0.0
  0
LINE
  5
29C
  8
DATA
  6
CONTINUOUS
 62
     7
 10
-87.5
 20
64.81598639530343
 30
0.0
 11
-87.5
 21
97.48401360469656
 31
0.0
  0
LINE
  5
29D
  8
DATA
  6
CONTINUOUS
 62
     7
 10
-37.5
 20
64.81598639530343
 30
0.0
 11
-37.5
 21
97.48401360469656
 31
0.0
  0
ARC
  5
29E
  8
DATA
  6
CONTINUOUS
 62
     7
 10
-12.11571037789281
 20
31.82302972222226
 30
0.0
 40
2.0
 50
90.0
 51
176.5874036653557
  0
ARC
  5
29F
  8
DATA
  6
CONTINUOUS
 62
     7
 10
12.11571037789275
 20
31.82302972222226
 30
0.0
 40
1.999999999999989
 50
3.412596334644363
 51
90.0
  0
ARC
  5
2A0
  8
DATA
  6
CONTINUOUS
 62
     7
 10
-14.7757790859236
 20
-81.17697027777774
 30
0.0
 40
1.800000000000047
 50
182.463609938537
 51
269.9999999999982
  0
ARC
  5
2A1
  8
DATA
  6
CONTINUOUS
 62
     7
 10
14.7757790859236
 20
-81.17697027777777
 30
0.0
 40
1.799999999999983
 50
270.0
 51
357.5363900614638
  0
ARC
  5
2A2
  8
DATA
  6
CONTINUOUS
 62
     7
 10
-62.5
 20
-212.85
 30
0.0
 40
313.0
 50
85.72462579550398
 51
94.27537420449603
  0
ARC
  5
2A3
  8
DATA
  6
CONTINUOUS
 62
     7
 10
-62.5
 20
375.15
 30
0.0
 40
313.0000000000001
 50
265.724625795504
 51
274.2753742044961
  0
ARC
  5
2A4
  8
DATA
  6
CONTINUOUS
 62
     7
 10
-85.70000000000005
 20
97.48401360469656
 30
0.0
 40
1.800000000000019
 50
94.27537420449642
 51
180.0
  0
ARC
  5
2A5
  8
DATA
  6
CONTINUOUS
 62
     7
 10
-39.30000000000001
 20
97.48401360469656
 30
0.0
 40
1.800000000000011
 50
0.0
 51
85.7246257955054
  0
ARC
  5
2A6
  8
DATA
  6
CONTINUOUS
 62
     7
 10
-85.70000000000005
 20
64.81598639530343
 30
0.0
 40
1.799999999999955
 50
180.0
 51
265.7246257955036
  0
ARC
  5
2A7
  8
DATA
  6
CONTINUOUS
 62
     7
 10
-39.30000000000007
 20
64.81598639530343
 30
0.0
 40
1.800000000000019
 50
274.2753742044964
 51
0.0
  0
ARC
  5
2A8
  8
DATA
  6
CONTINUOUS
 62
     7
 10
-62.5
 20
-214.05
 30
0.0
 40
313.0
 50
85.94614573478682
 51
94.0538542652132
  0
ARC
  5
2A9
  8
DATA
  6
CONTINUOUS
 62
     7
 10
-62.5
 20
376.3500000000001
 30
0.0
 40
313.0000000000001
 50
265.9461457347868
 51
274.0538542652132
  0
LINE
  5
2AA
  8
DATA
  6
CONTINUOUS
 62
     7
 10
-86.30000000000007
 20
65.9286089844967
 30
0.0
 11
-86.30000000000007
 21
75.49999999999999
 31
0.0
  0
LINE
  5
2AB
  8
DATA
  6
CONTINUOUS
 62
     7
 10
-86.30000000000007
 20
86.8
 30
0.0
 11
-86.30000000000007
 21
96.37139101550328
 31
0.0
  0
LINE
  5
2AC
  8
DATA
  6
CONTINUOUS
 62
     7
 10
-38.70000000000005
 20
65.9286089844967
 30
0.0
 11
-38.70000000000005
 21
75.49999999999999
 31
0.0
  0
LINE
  5
2AD
  8
DATA
  6
CONTINUOUS
 62
     7
 10
-38.70000000000005
 20
86.8
 30
0.0
 11
-38.70000000000005
 21
96.37139101550328
 31
0.0
  0
ARC
  5
2AE
  8
DATA
  6
CONTINUOUS
 62
     7
 10
-84.5
 20
96.37139101550328
 30
0.0
 40
1.800000000000048
 50
94.05385426521349
 51
180.0
  0
ARC
  5
2AF
  8
DATA
  6
CONTINUOUS
 62
     7
 10
-84.5
 20
65.9286089844967
 30
0.0
 40
1.800000000000068
 50
180.0
 51
265.9461457347865
  0
ARC
  5
2B0
  8
DATA
  6
CONTINUOUS
 62
     7
 10
-40.50000000000011
 20
96.37139101550328
 30
0.0
 40
1.800000000000068
 50
0.0
 51
85.9461457347847
  0
ARC
  5
2B1
  8
DATA
  6
CONTINUOUS
 62
     7
 10
-40.50000000000006
 20
65.9286089844967
 30
0.0
 40
1.800000000000048
 50
274.0538542652135
 51
0.0
  0
ARC
  5
2B2
  8
DATA
  6
CONTINUOUS
 62
     7
 10
-62.5
 20
-115.975
 30
0.0
 40
210.625
 50
85.03849090474218
 51
94.96150909525785
  0
ARC
  5
2B3
  8
DATA
  6
CONTINUOUS
 62
     7
 10
-62.5
 20
278.275
 30
0.0
 40
210.625
 50
265.0384909047422
 51
274.9615090952578
  0
ARC
  5
2B4
  8
DATA
  6
CONTINUOUS
 62
     7
 10
-80.5
 20
91.37016060183318
 30
0.0
 40
2.499999999999996
 50
94.96150909525869
 51
180.0
  0
ARC
  5
2B5
  8
DATA
  6
CONTINUOUS
 62
     7
 10
-44.5
 20
91.37016060183318
 30
0.0
 40
2.5
 50
0.0
 51
85.03849090474262
  0
ARC
  5
2B6
  8
DATA
  6
CONTINUOUS
 62
     7
 10
-80.5
 20
70.9298393981668
 30
0.0
 40
2.5
 50
180.0
 51
265.0384909047413
  0
ARC
  5
2B7
  8
DATA
  6
CONTINUOUS
 62
     7
 10
-44.5
 20
70.92983939816675
 30
0.0
 40
2.499999999999963
 50
274.9615090952574
 51
0.0
  0
CIRCLE
  5
2B8
  8
DATA
  6
CONTINUOUS
 62
     7
 10
-76.50814890111658
 20
-183.9769702777778
 30
0.0
 40
3.0
  0
ARC
  5
2B9
  8
DATA
  6
CONTINUOUS
 62
     7
 10
-62.50814890111616
 20
-444.4769702777777
 30
0.0
 40
288.4999999999999
 50
85.64242488931215
 51
94.34074887644097
  0
ARC
  5
2BA
  8
DATA
  6
CONTINUOUS
 62
     7
 10
-62.50814890111616
 20
94.52302972222225
 30
0.0
 40
288.4999999999999
 50
265.6424248893121
 51
274.340748876441
  0
ARC
  5
2BB
  8
DATA
  6
CONTINUOUS
 62
     7
 10
-84.23863924294795
 20
-190.6502260180445
 30
0.0
 40
2.500000000000023
 50
185.621586393858
 51
265.6424248893113
  0
ARC
  5
2BC
  8
DATA
  6
CONTINUOUS
 62
     7
 10
-40.77765855928442
 20
-159.303714537511
 30
0.0
 40
2.500000000000088
 50
5.62158639385981
 51
85.6424248893103
  0
ARC
  5
2BD
  8
DATA
  6
CONTINUOUS
 62
     7
 10
-84.14732177706082
 20
-159.3970583280845
 30
0.0
 40
2.60000000000011
 50
94.34074887644213
 51
174.4084946432278
  0
ARC
  5
2BE
  8
DATA
  6
CONTINUOUS
 62
     7
 10
-40.86897602517155
 20
-190.5568822274712
 30
0.0
 40
2.600000000000021
 50
274.340748876441
 51
354.4084946432289
  0
LINE
  5
2BF
  8
DATA
  6
CONTINUOUS
 62
     7
 10
-38.28968214769321
 20
-159.0588199165693
 30
0.0
 11
-38.28134719792041
 21
-190.8102141290923
 31
0.0
  0
LINE
  5
2C0
  8
DATA
  6
CONTINUOUS
 62
     7
 10
-86.73495060431202
 20
-159.1437264264634
 30
0.0
 11
-86.7266156545391
 21
-190.8951206389862
 31
0.0
  0
CIRCLE
  5
2C1
  8
DATA
  6
CONTINUOUS
 62
     7
 10
-62.5
 20
3.077356417447366
 30
0.0
 40
16.0
  0
CIRCLE
  5
2C2
  8
DATA
  6
CONTINUOUS
 62
     7
 10
-62.5
 20
3.077356417447366
 30
0.0
 40
14.5
  0
ARC
  5
2C3
  8
DATA
  6
CONTINUOUS
 62
     7
 10
62.5
 20
287.1292908618524
 30
0.0
 40
313.0000000000001
 50
265.4195902848982
 51
274.5804097148289
  0
ARC
  5
2C4
  8
DATA
  6
CONTINUOUS
 62
     7
 10
-5.013804038400963
 20
34.52302972222225
 30
0.0
 40
0.5
 50
90.0
 51
178.3961372288435
  0
ARC
  5
2C5
  8
DATA
  6
CONTINUOUS
 62
     7
 10
5.013804038400906
 20
34.52302972222225
 30
0.0
 40
0.5000000000000089
 50
1.603862771156546
 51
90.0
  0
TEXT
  5
2C6
  8
DATA
 62
     7
 10
49.00370608753732
 20
-78.39559674097845
 30
0.0
 40
2.171788194444445
  1
REFERENCE RECORDING
 41
0.7
 72
     1
 11
62.63529665466694
 21
-77.30970264375622
 31
0.0
 73
     2
  0
TEXT
  5
2C7
  8
DATA
 62
     7
 10
54.90011296112082
 20
-81.93289437420128
 30
0.0
 40
2.171788194444445
  1
MICROPHONE
 41
0.7
 72
     1
 11
61.99462106297267
 21
-80.84700027697906
 31
0.0
 73
     2
  0
TEXT
  5
2C8
  8
DATA
 62
     7
 10
-69.13584743145582
 20
-78.3267177336998
 30
0.0
 40
5.429470486111112
  1
C414
 41
0.7
 72
     1
 11
-62.80146519765952
 21
-75.61198249064424
 31
0.0
 73
     2
  0
TEXT
  5
2C9
  8
DATA
 62
     7
 10
99.99999999999997
 20
-234.2064049999999
 30
0.0
 40
4.8865234375
  1
C414 XLS
 41
0.7
 11
99.99999999999997
 21
-229.3198815624999
 31
0.0
 73
     3
  0
ARC
  5
2CA
  8
DATA
  6
CONTINUOUS
 62
     7
 10
-62.50814890111624
 20
-174.9769702777778
 30
0.0
 40
7.999999999999927
 50
51.10045644322414
 51
43.93731780590854
  0
CIRCLE
  5
2CB
  8
DATA
  6
CONTINUOUS
 62
     7
 10
-58.60814890111618
 20
-175.0
 30
0.0
 40
1.200000000000003
  0
ARC
  5
2CC
  8
DATA
  6
CONTINUOUS
 62
     7
 10
-57.10537183742008
 20
-169.0769702777779
 30
0.0
 40
0.5000000000000029
 50
315.7281024652314
 51
139.3096717839017
  0
ARC
  5
2CD
  8
DATA
  6
CONTINUOUS
 62
     7
 10
-62.50814890111624
 20
-174.9769702777778
 30
0.0
 40
10.79999999999998
 50
24.62431835216413
 51
155.3756816478359
  0
ARC
  5
2CE
  8
DATA
  6
CONTINUOUS
 62
     7
 10
-77.35867294758509
 20
-183.1264462313089
 30
0.0
 40
0.1571773583598254
 50
40.22321235647974
 51
229.7767876433505
  0
ARC
  5
2CF
  8
DATA
  6
CONTINUOUS
 62
     7
 10
-77.9663741772315
 20
-183.5862399928657
 30
0.0
 40
0.6096658940302654
 50
296.128838428954
 51
33.87116167915974
  0
ARC
  5
2D0
  8
DATA
  6
CONTINUOUS
 62
     7
 10
-77.66998635512215
 20
-184.2882836853144
 30
0.0
 40
0.1571773583598452
 50
100.2232123564629
 51
289.7767876433579
  0
ARC
  5
2D1
  8
DATA
  6
CONTINUOUS
 62
     7
 10
-77.57564389193561
 20
-185.0444652688776
 30
0.0
 40
0.6096658940303417
 50
356.1288384289549
 51
93.87116167915916
  0
ARC
  5
2D2
  8
DATA
  6
CONTINUOUS
 62
     7
 10
-75.6576248546481
 20
-184.8274943242459
 30
0.0
 40
0.1571773583598286
 50
220.2232123566416
 51
49.77678764352817
  0
ARC
  5
2D3
  8
DATA
  6
CONTINUOUS
 62
     7
 10
-76.11741861620484
 20
-185.4351955538923
 30
0.0
 40
0.6096658940303462
 50
56.12883832084177
 51
153.8711615710461
  0
ARC
  5
2D4
  8
DATA
  6
CONTINUOUS
 62
     7
 10
-76.81946230865364
 20
-185.1388077317829
 30
0.0
 40
0.1571773583597923
 50
160.2232123566518
 51
349.7767876435287
  0
ARC
  5
2D5
  8
DATA
  6
CONTINUOUS
 62
     7
 10
-76.89887918602837
 20
-182.5187450016625
 30
0.0
 40
0.6096658940303306
 50
236.1288383208392
 51
333.8711615710479
  0
ARC
  5
2D6
  8
DATA
  6
CONTINUOUS
 62
     7
 10
-76.19683549357958
 20
-182.8151328237719
 30
0.0
 40
0.1571773583597923
 50
340.2232123566519
 51
169.7767876435269
  0
ARC
  5
2D7
  8
DATA
  6
CONTINUOUS
 62
     7
 10
-75.44065391001641
 20
-182.9094752869584
 30
0.0
 40
0.609665894030347
 50
176.1288383208409
 51
273.871161571045
  0
ARC
  5
2D8
  8
DATA
  6
CONTINUOUS
 62
     7
 10
-75.04992362500171
 20
-184.3677005626892
 30
0.0
 40
0.6096658940302971
 50
116.1288384289539
 51
213.8711616791568
  0
ARC
  5
2D9
  8
DATA
  6
CONTINUOUS
 62
     7
 10
-75.34631144711108
 20
-183.6656568702404
 30
0.0
 40
0.1571773583598502
 50
280.2232123564731
 51
109.7767876433614
  0
ARC
  5
2DA
  8
DATA
  6
CONTINUOUS
 62
     7
 10
-79.50814890111646
 20
-162.9769702777779
 30
0.0
 40
2.000000000000171
 50
90.00000000000365
 51
179.9999999999959
  0
LINE
  5
2DB
  8
DATA
  6
CONTINUOUS
 62
     7
 10
-81.50814890111663
 20
-186.9769702777778
 30
0.0
 11
-81.5081489011166
 21
-162.9769702777777
 31
0.0
  0
ARC
  5
2DC
  8
DATA
  6
CONTINUOUS
 62
     7
 10
-79.50814890111658
 20
-186.9769702777777
 30
0.0
 40
2.000000000000043
 50
180.0000000000016
 51
270.0
  0
LINE
  5
2DD
  8
DATA
  6
CONTINUOUS
 62
     7
 10
-45.50814890111656
 20
-188.9769702777778
 30
0.0
 11
-79.50814890111658
 21
-188.9769702777778
 31
0.0
  0
ARC
  5
2DE
  8
DATA
  6
CONTINUOUS
 62
     7
 10
-45.50814890111657
 20
-186.9769702777778
 30
0.0
 40
2.0
 50
270.0000000000002
 51
0.0000000000008527
  0
LINE
  5
2DF
  8
DATA
  6
CONTINUOUS
 62
     7
 10
-43.5081489011166
 20
-162.9769702777777
 30
0.0
 11
-43.50814890111658
 21
-186.9769702777778
 31
0.0
  0
ARC
  5
2E0
  8
DATA
  6
CONTINUOUS
 62
     7
 10
-45.50814890111656
 20
-162.9769702777777
 30
0.0
 40
1.999999999999957
 50
359.9999999999993
 51
90.00000000000104
  0
LINE
  5
2E1
  8
DATA
  6
CONTINUOUS
 62
     7
 10
-79.50814890111658
 20
-160.9769702777777
 30
0.0
 11
-45.50814890111659
 21
-160.9769702777777
 31
0.0
  0
LINE
  5
2E2
  8
DATA
  6
CONTINUOUS
 62
     7
 10
-78.2462455768585
 20
-181.5317668208493
 30
0.0
 11
-76.68744038167894
 21
-183.0905720160288
 31
0.0
  0
LINE
  5
2E3
  8
DATA
  6
CONTINUOUS
 62
     7
 10
-75.621750639368
 20
-184.1562617583398
 30
0.0
 11
-74.0629454441881
 21
-185.7150669535197
 31
0.0
  0
LINE
  5
2E4
  8
DATA
  6
CONTINUOUS
 62
     7
 10
-78.95335235804505
 20
-182.2388736020358
 30
0.0
 11
-77.39454716286538
 21
-183.7976787972155
 31
0.0
  0
LINE
  5
2E5
  8
DATA
  6
CONTINUOUS
 62
     7
 10
-76.32885742055473
 20
-184.8633685395262
 30
0.0
 11
-74.77005222537466
 21
-186.4221737347062
 31
0.0
  0
CIRCLE
  5
2E6
  8
DATA
  6
CONTINUOUS
 62
     7
 10
-48.50814890111658
 20
-165.9769702777778
 30
0.0
 40
3.0
  0
ARC
  5
2E7
  8
DATA
  6
CONTINUOUS
 62
     7
 10
-49.35867294758509
 20
-165.1264462313089
 30
0.0
 40
0.1571773583598254
 50
40.22321235647974
 51
229.7767876433505
  0
ARC
  5
2E8
  8
DATA
  6
CONTINUOUS
 62
     7
 10
-49.9663741772315
 20
-165.5862399928657
 30
0.0
 40
0.6096658940302654
 50
296.128838428954
 51
33.87116167915974
  0
ARC
  5
2E9
  8
DATA
  6
CONTINUOUS
 62
     7
 10
-49.66998635512215
 20
-166.2882836853144
 30
0.0
 40
0.1571773583598452
 50
100.2232123564629
 51
289.7767876433579
  0
ARC
  5
2EA
  8
DATA
  6
CONTINUOUS
 62
     7
 10
-49.57564389193561
 20
-167.0444652688776
 30
0.0
 40
0.6096658940303417
 50
356.1288384289549
 51
93.87116167915916
  0
ARC
  5
2EB
  8
DATA
  6
CONTINUOUS
 62
     7
 10
-47.65762485464811
 20
-166.8274943242459
 30
0.0
 40
0.1571773583598286
 50
220.2232123566416
 51
49.77678764352817
  0
ARC
  5
2EC
  8
DATA
  6
CONTINUOUS
 62
     7
 10
-48.11741861620484
 20
-167.4351955538923
 30
0.0
 40
0.6096658940303462
 50
56.12883832084177
 51
153.8711615710461
  0
ARC
  5
2ED
  8
DATA
  6
CONTINUOUS
 62
     7
 10
-48.81946230865364
 20
-167.1388077317829
 30
0.0
 40
0.1571773583597923
 50
160.2232123566518
 51
349.7767876435287
  0
ARC
  5
2EE
  8
DATA
  6
CONTINUOUS
 62
     7
 10
-48.89887918602837
 20
-164.5187450016625
 30
0.0
 40
0.6096658940303306
 50
236.1288383208392
 51
333.8711615710479
  0
ARC
  5
2EF
  8
DATA
  6
CONTINUOUS
 62
     7
 10
-48.19683549357958
 20
-164.8151328237719
 30
0.0
 40
0.1571773583597923
 50
340.2232123566519
 51
169.7767876435269
  0
ARC
  5
2F0
  8
DATA
  6
CONTINUOUS
 62
     7
 10
-47.44065391001641
 20
-164.9094752869584
 30
0.0
 40
0.609665894030347
 50
176.1288383208409
 51
273.871161571045
  0
ARC
  5
2F1
  8
DATA
  6
CONTINUOUS
 62
     7
 10
-47.04992362500171
 20
-166.3677005626892
 30
0.0
 40
0.6096658940302971
 50
116.1288384289539
 51
213.8711616791568
  0
ARC
  5
2F2
  8
DATA
  6
CONTINUOUS
 62
     7
 10
-47.34631144711108
 20
-165.6656568702404
 30
0.0
 40
0.1571773583598502
 50
280.2232123564731
 51
109.7767876433614
  0
LINE
  5
2F3
  8
DATA
  6
CONTINUOUS
 62
     7
 10
-50.2462455768585
 20
-163.5317668208493
 30
0.0
 11
-48.68744038167894
 21
-165.0905720160288
 31
0.0
  0
LINE
  5
2F4
  8
DATA
  6
CONTINUOUS
 62
     7
 10
-47.621750639368
 20
-166.1562617583398
 30
0.0
 11
-46.0629454441881
 21
-167.7150669535197
 31
0.0
  0
LINE
  5
2F5
  8
DATA
  6
CONTINUOUS
 62
     7
 10
-50.95335235804505
 20
-164.2388736020358
 30
0.0
 11
-49.39454716286538
 21
-165.7976787972155
 31
0.0
  0
LINE
  5
2F6
  8
DATA
  6
CONTINUOUS
 62
     7
 10
-48.32885742055473
 20
-166.8633685395262
 30
0.0
 11
-46.77005222537466
 21
-168.4221737347062
 31
0.0
  0
ARC
  5
2F7
  8
DATA
  6
CONTINUOUS
 62
     7
 10
-62.50814890111624
 20
-174.9769702777778
 30
0.0
 40
11.1
 50
24.62431835216409
 51
155.3756816478359
  0
LINE
  5
2F8
  8
DATA
  6
CONTINUOUS
 62
     7
 10
-72.32598980428837
 20
-170.4769702777778
 30
0.0
 11
-73.0911541453746
 21
-170.4769702777778
 31
0.0
  0
LINE
  5
2F9
  8
DATA
  6
CONTINUOUS
 62
     7
 10
-52.69030799794412
 20
-170.4769702777778
 30
0.0
 11
-51.92514365685788
 21
-170.4769702777778
 31
0.0
  0
CIRCLE
  5
2FA
  8
DATA
  6
CONTINUOUS
 62
     7
 10
-62.50814890111616
 20
-178.3500540753542
 30
0.0
 40
1.200000000000003
  0
CIRCLE
  5
2FB
  8
DATA
  6
CONTINUOUS
 62
     7
 10
-66.40814890111619
 20
-175.0
 30
0.0
 40
1.200000000000003
  0
ENDSEC
  0
EOF
